Sultans of swing solo

Gitaarliedjes, tabs & akkoorden (chords) Sultans of swing solo - dire straits

Songtype: Tab

arrow&v

Markeer als favoriet

Favoriet

Gemarkeerd als favoriet

Capo:

0

dire straits

dire straits

Song
Album
Categorie

Sultans of swing solo

Downloads
2145
Niveau
2
the very best of dire straits

Geplaatst door
leon verra
ProTabs-promo.jpg

Dire Straits - Sultans of swing SOLO.
Dit is een bekende solo uit dire straits. Beginners kunnen hem met veel oefenen. De gevorderderden kunnen hem zo spellen. Zit er een fout in laat het dan a.u.b even weten in een reactie dan pas ik het aan. Alvast bedankt:

Push up =
Snaar optrekken (soms de snaar optrekken en meerdere keren aanslaan als hij opgetrokken is zoals bij het begin: 8 pushup bij vakje 8 optrekken dan staat er achter 8 8 dus nog twee keer aanslaan als hij opgetrokken is gewoon even proberen)

H = Hammeron
V = Vibrato
Vibrato = Vibrato

E -------------------------------------------------------------------------------------------------------------
B ---8pushup---8--8----6h8---5h6-----------------------------------------------------------------
G -------------------------------------------------------------------------------------------------------------
D -------------------------------------------------------------------------------------------------------------
A -------------------------------------------------------------------------------------------------------------
E -------------------------------------------------------------------------------------------------------------

E --------------------9----------------------------------------------------------------------------------------
B --------------10--------------------------------------------------------------------------------------------
G ----------9-------------------------------------------------------------------------------------------------
D -----11-----------------------------------------------------------------------------------------------------
A -------------------------------------------------------------------------------------------------------------
E -------------------------------------------------------------------------------------------------------------

E ------12pushup--10--------10-----------------------------------------------------------------------
B --------------------------------10--------------------------------------------------------------------------
G ------------------------------------10---------------------------------------------------------------------
D ----------------------------------------12vibrato-------------------------------------------------------
A -------------------------------------------------------------------------------------------------------------
E -------------------------------------------------------------------------------------------------------------

E -------------------------------------------------------------------------------------------------------------
B ---10----------14vibrato------11h13----10h11-------------11-11-------------9s10----
G -------------------------------------------------------------------------------------------------------------
D -------------------------------------------------------------------------------------------------------------
A -------------------------------------------------------------------------------------------------------------
E -------------------------------------------------------------------------------------------------------------

E --------------------------------------------------14-------------------------------------------------------
B -------------------------14--------------------------------------------------------------------------------
G --------12pushup--------------12pushup-------------------12----10-------------------------
D -------------------------------------------------------------------------------------------------------------
A -------------------------------------------------------------------------------------------------------------
E -------------------------------------------------------------------------------------------------------------

ProTabs promo.jpg

Onbeperkt en gratis toegang tot alle 25.000
Tabs & Chords en direct meespelen met

Artiest Liedje

...

Gitaarakkoorden dire straits - Sultans of swing solo

Dankzij de bladmuziek op deze pagina wordt het een stuk makkelijker om met de gitaar mee te spelen met Sultans of swing solo van dire straits De ProTabs van Gitaartabs worden door onze professionele gitaardocenten samengesteld. De tabs en chords zijn door leden zelf geplaatst. Deze undefined van dire straits met Sultans of swing solo is voor je geschreven door leon verra

Tabs & Chords van dire straits - Sultans of swing solo

Bij de ProTabs delen we niet alleen de tablatuur maar ook de speelwijze van Sultans of swing solo Met een beetje gitaar ervaring moet je dit gitaarliedje zeker kunnen spelen, maar als het niet lukt zijn we er altijd om je te helpen. Door een gratis account aan te maken krijg je niet alleen toegang tot deze tab ,akkoorden & tabs van Sultans of swing solo maar kun je ook onbeperkt meespelen met een van de meer dan 25.000 andere tabs & chords in onze database.

Plaats opmerking

Verstuur

Beoordeel deze song

Rate UsDon’t love itNot greatGoodGreatLove itRate Us

Bedankt voor je beoordeling!