Wonderful tonight

Gitaarliedjes, tabs & akkoorden (chords) Wonderful tonight - Eric clapton

Songtype: Tab

arrow&v

Markeer als favoriet

Favoriet

Gemarkeerd als favoriet

Capo:

0

Eric clapton

Eric clapton

Song
Album
Categorie

Wonderful tonight

Downloads
873
Niveau
1
Geplaatst door
gitaartabs
ProTabs-promo.jpg

hallo, dit is mijn eerste tab, dus er zouden fouten in kunnen zitten

2x intro:

e|---------------0--------------------------0----------------
B|-----------3-----3-------------------3-----3----0-------
G|-------4------------4------------2------------2----------
D|----5-------------------5-----0---------------------------
A|-------------------------------------------------------------
E|-------------------------------------------------------------


e|--------------0----------------------------0------------
B|----------3-----3-----------------3---------3---------
G|--------------------0----------2------2--------2------
D|------2----------------2---0-----------------------0--
A|---3-----------------------------------------------------
E|----------------------------------------------------------



2x vervolg:
e|-------------------------------------------------------------------
B|---------------------------------------------------------------------
G|------------------12b14-----10----12-----------------------
D|------10--10----------------------------------------------------
A|----------------------------------------------------------------------
E|---------------------------------------------------------------------

e|--------------------------------------------------
B|--------------------------------------------------
G|------------------12b14---10--------------------
D|----10---10-----------------------12----------
A|--------------------------------------------------
E|--------------------------------------------------

e|--------------------------------------------------
B|--------------------------------------------------
G|--------------12b14----10----12---------------
D|--10--10----------------------------------------------
A|--------------------------------------------------
E|--------------------------------------------------

eind vervolg

e|-------------------------------------------------------------------------
B|----------------------------------------------11--13b15----------
G|---------------12b14--10--12---14----------------------------
D|---10--10-----------------------------------------------------------
A|------------------------------------------------------------------------
E|------------------------------------------------------------------------


ProTabs promo.jpg

Onbeperkt en gratis toegang tot alle 25.000
Tabs & Chords en direct meespelen met

Artiest Liedje

...

Gitaarakkoorden Eric clapton - Wonderful tonight

Dankzij de bladmuziek op deze pagina wordt het een stuk makkelijker om met de gitaar mee te spelen met Wonderful tonight van Eric clapton De ProTabs van Gitaartabs worden door onze professionele gitaardocenten samengesteld. De tabs en chords zijn door leden zelf geplaatst. Deze undefined van Eric clapton met Wonderful tonight is voor je geschreven door gitaartabs

Tabs & Chords van Eric clapton - Wonderful tonight

Bij de ProTabs delen we niet alleen de tablatuur maar ook de speelwijze van Wonderful tonight Met een beetje gitaar ervaring moet je dit gitaarliedje zeker kunnen spelen, maar als het niet lukt zijn we er altijd om je te helpen. Door een gratis account aan te maken krijg je niet alleen toegang tot deze tab ,akkoorden & tabs van Wonderful tonight maar kun je ook onbeperkt meespelen met een van de meer dan 25.000 andere tabs & chords in onze database.

Plaats opmerking

Beoordeel deze song

Rate UsDon’t love itNot greatGoodGreatLove itRate Us

Bedankt voor je beoordeling!