There for you

Gitaarliedjes, tabs & akkoorden (chords) There for you - flyleaf

Songtype: Tab

arrow&v

Markeer als favoriet

Favoriet

Gemarkeerd als favoriet

Capo:

0

flyleaf

flyleaf

Song
Album
Categorie

There for you

Downloads
201
Niveau
2
Geplaatst door
roos
ProTabs-promo.jpg

Intro/Verse:
e|---------------------------------------------------- |
b|--5----5-3-----3-8-----8-7-----7-------------------- |
g|----0------0-------0-------0------| <-------------- |
d|----------------------------------| -- |
a|--3--3---2---2---7---7---5---5----| -- |
d|----------------------------------| -- |
|
|
e|---------------------------------------| -- |
b|--5----5-3-----3-7-----7--8p7-----7----------------- | | (go back to the beginning
g|----0------0-------0----------0--------------------- | |(x3) of this line when
d|---------------------------------------------------- | you repeat.
a|--3--3---2---2---5---5----------5------------------- | not this one)

Sometimes I’m a selfish fake
You’re always a true friend
I don’t deserve you ‘cause I’m not there for you
Wooh I wish I would be

Chorus:
e|----------------------------------------------------|
b|[Listen to the song to figure out the strum pattern]|
g|-5~-----------------44444444------------55555555----|{x2)
d|-5~---5-555--4-444--44444444--22222222--55555555----|
a|-3~---5-555--4-444--22222222--22222222--33333333----|
d|------5-555--4-444------------22222222--------------|

Second Verse : 0:56-1:14
e|---------------------------------------------------- |
b|--5----5-3-----3-8-----8-7-----7-------------------- |
g|----0------0-------0-------0------| <-------------- |
d|----------------------------------| -- |
a|--3--3---2---2---7---7---5---5----| -- |
d|----------------------------------| -- |
|
|
e|---------------------------------------| -- |
b|--5----5-3-----3-7-----7--8p7-----7----------------- | | (go back to the beginning
g|----0------0-------0----------0--------------------- | |(x2) of this line when
d|---------------------------------------------------- | you repeat.
a|--3--3---2---2---5---5----------5------------------- | not this one)


Second Chorus: 1:14-2:16
e|----------------------------------------------------|
b|[Listen to the song to figure out the strum pattern]|
g|-5~-----------------44444444------------55555555----|{x2)
d|-5~---5-555--4-444--44444444--22222222--55555555----|
a|-3~---5-555--4-444--22222222--22222222--33333333----|
d|------5-555--4-444------------22222222--------------|

e|----------------------------------------|
b|---[All the strums are down strokes]----|
g|------------444444----------55555555----|{x2)
d|--555--444--444444--222222--55555555----|
a|--555--444--222222--222222--33333333----|
d|--555--444----------222222--------------|

*Electric guitar becomes dominant and heavy here"
e|--------------------------------|
b|[All strums are down strokes]---|
g|------------444444----555555----|
d|--555--444--444444----555555----|
a|--555--444--222222----333333----|
d|--555--444----------------------|
"I wanna be there for you"

e|----------------------------------------|
b|-----[All strums are down strokes]------|
g|------------444444----------55555555----|
d|--555--444--444444--222222--55555555----|
a|--555--444--222222--222222--33333333----|
d|--555--444----------222222--------------|
"and be someone you can come to"

e|----------------------------|
b|[All strums are down strokes]|
g|------------444444----5~----|
d|--555--444--444444----5~----|
a|--555--444--222222----3~----|
d|--555--444------------------|
"The love runs deeper than my bones"

Outro: 2:16-End
e|--------------------------------------------|
b|--------------------------------------------|
g|------------------44444444------------------|
d|----5-555--4-444--44444444--22222222--4~----|
a|----5-555--4-444--22222222--22222222--5~----|
d|----5-555--4-444------------22222222--4~----|


| p pull-off
| ~ let note ring

ProTabs promo.jpg

Onbeperkt en gratis toegang tot alle 25.000
Tabs & Chords en direct meespelen met

Artiest Liedje

...

Gitaarakkoorden flyleaf - There for you

Dankzij de bladmuziek op deze pagina wordt het een stuk makkelijker om met de gitaar mee te spelen met There for you van flyleaf De ProTabs van Gitaartabs worden door onze professionele gitaardocenten samengesteld. De tabs en chords zijn door leden zelf geplaatst. Deze undefined van flyleaf met There for you is voor je geschreven door roos

Tabs & Chords van flyleaf - There for you

Bij de ProTabs delen we niet alleen de tablatuur maar ook de speelwijze van There for you Met een beetje gitaar ervaring moet je dit gitaarliedje zeker kunnen spelen, maar als het niet lukt zijn we er altijd om je te helpen. Door een gratis account aan te maken krijg je niet alleen toegang tot deze tab ,akkoorden & tabs van There for you maar kun je ook onbeperkt meespelen met een van de meer dan 25.000 andere tabs & chords in onze database.

Plaats opmerking

Beoordeel deze song

Rate UsDon’t love itNot greatGoodGreatLove itRate Us

Bedankt voor je beoordeling!