Keep your hands off my girl

Gitaarliedjes, tabs & akkoorden (chords) Keep your hands off my girl - good charlotte

Songtype: Tab

arrow&v

Markeer als favoriet

Favoriet

Gemarkeerd als favoriet

Capo:

0

good charlotte

good charlotte

Song
Album
Categorie

Keep your hands off my girl

Downloads
227
Niveau
2

Geplaatst door
[b]lack[a]ngel
ProTabs-promo.jpg

(Intro/Couplet)
e|-----------------------------------|
B|-----------------------------------|
G|-----------------------------------|
D|-----------------7-7-7-------------|X 8
A|-6--6-6---6-666--5-5-5-------------|
E|-4--4-4---4-444--------------------|

(Voor refrein)
e|-------------------------------------|
B|-------------------------------------|
G|-------------------------------------|
D|----9----8---------------------------| X2
A|-6--7-6--6-6-6---6--9--6--9--6-------|
E|-4----4----4-4---4--7--4--7--4-------|


(Refrein)
e|----------------------------------------------|
B|----------------------------------------------|
G|----------------------------------------------|
D|-----------------------5555-----5555----------| X3
A|-2222222244444444-666--7777-666-7777----------|
E|-0000000022222222-444-------444---------------|

e|---------------------------------------|
B|---------------------------------------|
G|---------------------------------------|
D|------------------8888888888888888-----|
A|-2222222244444444-6666666666666666-----|
E|-0000000022222222----------------------|

(Couplet)
e|-----------------------------------|
B|-----------------------------------|
G|-----------------------------------|
D|-----------------7-7-7-------------|X 4
A|-6--6-6---6-666--5-5-5-------------|
E|-4--4-4---4-444--------------------|

(Voor Refrein)
e|-------------------------------------|
B|-------------------------------------|
G|-------------------------------------|
D|----9----8---------------------------| X2
A|-6--7-6--6-6-6---6--9--6--9--6-------|
E|-4----4----4-4---4--7--4--7--4-------|

(Refrein)
e|----------------------------------------------|
B|----------------------------------------------|
G|----------------------------------------------|
D|-----------------------5555-----5555----------| X3
A|-2222222244444444-666--7777-666-7777----------|
E|-0000000022222222-444-------444---------------|

e|---------------------------------------|
B|---------------------------------------|
G|---------------------------------------|
D|------------------8888888888888888-----|
A|-2222222244444444-6666666666666666-----|
E|-0000000022222222----------------------|

(Bridge)
e|-----------------------------------------|
B|-----------------------------------------|
G|-----------------------------------------|
D|-----------6-88888888-9999999-6666666----|
A|-66-9-66-9-4-66666666-7777777-4444444----|
E|-44-7-44-7-------------------------------|

e|----------------------------------------------|
B|----------------------------------------------|
G|----------------------------------------------|
D|-----------6-88888888-9999999-1111111111111111|
A|-66-9-66-9-4-66666666-7777777-9-9-9-9-9-9-9-9-|
E|-44-7-44-7------------------------------------|

e|-----------------------------------------|
B|-----------------------------------------|
G|-----------------------------------------|
D|-----------6-88888888-9999999-6666666----|
A|-66-9-66-9-4-66666666-7777777-4444444----|
E|-44-7-44-7-------------------------------|

e|-----------------------------------------------------------------|
B|-----------------------------------------------------------------|
G|-----------------------------------------------------------------|
D|-----------6-88888888-9999999-11111111111111111111111111111111---|
A|-66-9-66-9-4-66666666-7777777-9-9-9-9-9-9-9-9-9-9-9-9-9-9-9-9----|
E|-44-7-44-7-------------------------------------------------------|



(Refrein)
e|----------------------------------------------|
B|----------------------------------------------|
G|----------------------------------------------|
D|-----------------------5555-----5555----------| X3
A|-2222222244444444-666--7777-666-7777----------|
E|-0000000022222222-444-------444---------------|

e|---------------------------------------|
B|---------------------------------------|
G|---------------------------------------|
D|------------------8888888888888888-----|
A|-2222222244444444-6666666666666666-----|
E|-0000000022222222----------------------|

(Outro/Couplet)
e|-----------------------------------|
B|-----------------------------------|
G|-----------------------------------|
D|-----------------7-7-7-------------|X 3
A|-6--6-6---6-666--5-5-5-------------|
E|-4--4-4---4-444--------------------|

ProTabs promo.jpg

Onbeperkt en gratis toegang tot alle 25.000
Tabs & Chords en direct meespelen met

Artiest Liedje

...

Gitaarakkoorden good charlotte - Keep your hands off my girl

Dankzij de bladmuziek op deze pagina wordt het een stuk makkelijker om met de gitaar mee te spelen met Keep your hands off my girl van good charlotte De ProTabs van Gitaartabs worden door onze professionele gitaardocenten samengesteld. De tabs en chords zijn door leden zelf geplaatst. Deze undefined van good charlotte met Keep your hands off my girl is voor je geschreven door [b]lack[a]ngel

Tabs & Chords van good charlotte - Keep your hands off my girl

Bij de ProTabs delen we niet alleen de tablatuur maar ook de speelwijze van Keep your hands off my girl Met een beetje gitaar ervaring moet je dit gitaarliedje zeker kunnen spelen, maar als het niet lukt zijn we er altijd om je te helpen. Door een gratis account aan te maken krijg je niet alleen toegang tot deze tab ,akkoorden & tabs van Keep your hands off my girl maar kun je ook onbeperkt meespelen met een van de meer dan 25.000 andere tabs & chords in onze database.

Plaats opmerking

Verstuur

Beoordeel deze song

Rate UsDon’t love itNot greatGoodGreatLove itRate Us

Bedankt voor je beoordeling!