I don't care

Gitaarliedjes, tabs & akkoorden (chords) I don't care - green day

Songtype: Tab

arrow&v

Markeer als favoriet

Favoriet

Gemarkeerd als favoriet

Capo:

0

green day

green day

Song
Album
Categorie

I don't care

Downloads
1385
Niveau
1
Geplaatst door
muyse012
ProTabs-promo.jpg

Intro:
G#5 C#5 G#5 C#5 F#5 C#5 G#5 x5
e|-----------------------------------------------|
B|-----------------------------------------------|
G|--------6------------6------------6------------|
D|-6------6-----6------6-----4------6-------6----|
A|-6------4-----6------4-----4------4-------6----|
E|-4------------4------------2--------------4----|

Intro lead:
e|-----------------------------------------------|
B|---------------------6-----7-7-77-6-------9v---|
G|--------6-6-6----------8-6----------8-6-8------|
D|-6-6-66-------6-6-66---------------------------|
A|-----------------------------------------------|
E|-----------------------------------------------|


Riff 1:
F#G#5 C#5 A5G#5 x4
e|--------|---------------|
B|--------|---------------|
G|--------|--6------------|
D|-4-6----|--6-----7-6----|
A|-4-6----|--4-----7-6----|
E|-2-4----|--------5-4----|


Verse:
A5G#5 x8
e|-------------------------------|
B|-------------------------------|
G|-------(bass)------------------|
D|------------------------7-6----|
A|-4-4-4-4-4-4-4-4-4-4----7-6----|
E|------------------------5-4----|


Chorus:
F#5 G#5 C#G#5 x3 F#5 G#5
e|--------------------------------|
B|--------------------------------|
G|-----------6--------------------|
D|-4----6----6-6--------4----6----|
A|-4----6----4-6--------4----6----|
E|-2----4------4--------2----4----|

Riff 4:
F#G#5 C#5 x4
e|-------------|
B|-------------|
G|--------6----|
D|-4-6----6----|
A|-4-6----4----|
E|-2-4---------|

Outro
C#5 G#5
e|-------------|
B|-------------|
G|-6-6-6-66----|
D|-6-6-6-66-6--|
A|-4-4-4-44-6--|
E|----------4--|
(Let ring)

Order:

Intro w/Intro lead
Intro x4
Riff 1
Verse
Chorus
Riff 2
Outro

Lyrics:

I don't care if you don't
I don't care if you don't (Intro) x4
I don't care if you don't care

I don't care! (Riff 1)

Everyone is so full of shit
Burn and raised by hipocrits
Hearts recycled but never saved
From the cradle to the grave (Verse)
We are the kids of war and peace
From Anaheim to the Middle Mast
We are the stories and disciples
Of the Jesus of suburbia

Land of make believe
And it don't believe in me (Chorus)
Land of make believe
And I don't believe

And I don't care!
I don't care!
I don't care! (Riff 2)
I don't care!
I don't care!

ProTabs promo.jpg

Onbeperkt en gratis toegang tot alle 25.000
Tabs & Chords en direct meespelen met

Artiest Liedje

...

Gitaarakkoorden green day - I don't care

Dankzij de bladmuziek op deze pagina wordt het een stuk makkelijker om met de gitaar mee te spelen met I don't care van green day De ProTabs van Gitaartabs worden door onze professionele gitaardocenten samengesteld. De tabs en chords zijn door leden zelf geplaatst. Deze undefined van green day met I don't care is voor je geschreven door muyse012

Tabs & Chords van green day - I don't care

Bij de ProTabs delen we niet alleen de tablatuur maar ook de speelwijze van I don't care Met een beetje gitaar ervaring moet je dit gitaarliedje zeker kunnen spelen, maar als het niet lukt zijn we er altijd om je te helpen. Door een gratis account aan te maken krijg je niet alleen toegang tot deze tab ,akkoorden & tabs van I don't care maar kun je ook onbeperkt meespelen met een van de meer dan 25.000 andere tabs & chords in onze database.

Plaats opmerking

Beoordeel deze song

Rate UsDon’t love itNot greatGoodGreatLove itRate Us

Bedankt voor je beoordeling!