Welcome to the jungle

Gitaarliedjes, tabs & akkoorden (chords) Welcome to the jungle - guns n roses

Songtype: Tab

arrow&v

Markeer als favoriet

Favoriet

Gemarkeerd als favoriet

Capo:

0

guns n roses

guns n roses

Song
Album
Categorie

Welcome to the jungle

Downloads
604
Niveau
2
Geplaatst door
gitaartabs
ProTabs-promo.jpg

Tune je gitaar een halve toon lager

Intro

Gitaar 1
E|----------------------|
B|----------------------|
G|-44--444----4---------|
D|----------------------|
A|----------------------|
E|----------------------|

E|------------------------------------------|
B|------------------------------------------|
G|-4----4--2----2---------------------------|
D|-----------------4----4--2----2-0---------| x6
A|-------------------------------------2----|
E|------------------------------------------|

E|--------------------------|
B|--------------------------|
G|--444-222-----------------|
D|----------444-222-00------| x3
A|---------------------2-2--|
E|--------------------------|

E|----------------------------------------------------------------------|
B|----------------------------------------------------------------------|
G|---7--------4---4---4---4---4---4---4---4---4---4---4---4---4---4--\2-|
D|---7---7----4---4---4---4---4---4---4---4---4---4---4---4---4---4--\2-|
A|---5---7----2---2---2---2---2---2---2---2---2---2---2---2---2---2--\0-|
E|-------5--------------------------------------------------------------|
Pm . . . . . . . . . . . . .

E|--------------------------|---------------------------|
B|--------------------------|---------------------------|
G|--------------------------|---------------------------|
D|--------------------------|---------------------------|
A|-7--7--5--7--7--7-5--4--2-|-7--7--5--7--7--7--5--4--2-|
E|-5--5--3--5--5--5-3--2--0-|-5--5--3--5--5--5--3--2--0-|


Guitar 2
E|------------------------------------7--7/5--5-0---------|
B|------------------------------------7--7/5--5-0---7-----|
G|------------7-9-9b---7----------------------------7--6--|
D|---7h9--9-----------------7h9—9/2-----------------5--7--|
A|-----------------------------------------------------7--|
E|-----------------------------------------------------5--|

E|------------------------------------5--5------------|
B|-----------------------3---5-----5b----5b---3-------|
G|----------------2--4----------------------------4\--|
D|---------2--4---------------------------------------|
A|--2--4----------------------------------------------|
E|----------------------------------------------------|

E|-------------------------|--------------------------|
B|-------------------------|--------------------------|
G|--2------2--2--0---------|--2-x-x-----2-2--0--------|
D|--2------2--2--0---------|--2-x-x-----2-2--0--------|
A|--0------0--0------------|--0-x-x-----0-0-----------|
E|----3b-----------3--2--0-|--------3b--------3--2--0-|

Couplet

Gitaar 1
E|------------------------------|
B|------------------------------|
G|------------------------------|
D|------------------------------| x2
A|------------------------------|
E|-5--5---3---5--5--5-3--2--0-0-|
Pm . . . . . . .

E|--------------------------|-------------------------------|
B|--------------------------|-------------------------------|
G|----------x---------------|-------------------------------|
D|--9--9--7-x-9--9--7--6--4-|-------------------------------| x2
A|--7--7--5-x-7--7--5--4--2-|-------------------------------|
E|--------------------------|


Gitaar 2
E|-------------------------|--------------------------|
B|-------------------------|--------------------------|
G|--2------2--2--0---------|--2-x-x-----2-2--0--------|
D|--2------2--2--0---------|--2-x-x-----2-2--0--------| x2
A|--0------0--0----------0-|--0-x-x-----0-0---------0-|
E|----3b-----------3--2----|--------3b--------3--2----|
Pm . . . .

E|--------------------------|--------------------------|
B|--------------------------|--------------------------|
G|--9--9--7-x-9--9----------|--2-x-x-----2-2--0--------|
D|--9--9--7-x-9--9--7--6--4-|--2-x-x-----2-2--0--------| x2
A|--7--7--5-x-7--7--5--4--2-|--0-x-x-----0-0---------0-|
E|--------------------------|--------3b--------3--2----|

Refrein

Gitaar 1
E|--------------------------------------|
B|--------------------------------------|
G|--------5-------------------------7---|
D|--------5-------------------------7---|
A|--------3-------------------------5---|
E|--------------------------------------|

E|-------------------------|
B|-------------------------|
G|-------------------------|
D|-------------------------| x3
A|--7--7--5----------------|
E|-----------6—6--5--3--0--|

Gitaar 2
E|----------------------------------------------------------------|
B|----------------------------------------------------------------|
G|--------5-------------------------7-----------------------------|
D|--------5-------------------------7-----------------------------|
A|--------3----2--------------------5------4----------------------|
E|------------------5------3-----------------------7---------5----|

E|-------------------------------|
B|-------------------------------|
G|--9--9-------------------------|
D|--9--9-------------------------| x3
A|--7--7--5----------------------|
E|-----------6--6--5--5--3--0----|

E|-----------------------------------------|
B|-----------------------------------------|
G|-----------------------------------------|
D|-----------------------------------------|
A|--------7----5---------------------------|
E|-----------------------6------5---3---4--|

Tekst:
Welcome to the jungle
We got fun 'n' games
We got everything you want
Honey we know the names
We are the people that can find
Whatever you may need
If you got the money honey
We got your disease


Refrein:
In the jungle
Welcome to the jungle
Watch it bring you to your shun n,n,n,n,,n,n,,n,n,n,,n,n,,n knees, knees
I wanna watch you bleed


Welcome to the jungle
We take it day by day
If you want it you're gonna bleed
But it's the price you pay
And you're a very sexy girl
That's very hard to please
You can taste the bright lights
But you won't get them for free
In the jungle
Welcome to the jungle
Feel my, my, my serpentine
I, I wanna hear you scream


Welcome to the jungle
It gets worse here everyday
Ya learn ta live like an animal
In the jungle where we play
If you got a hunger for what you see
You'll take it eventually
You can have anything you want
But you better not take it from me


Refrein


And when you're high you never
Ever want to come down, so down, so down, so down YEAH!


You know where you are
You're in the jungle baby
You're gonna die
In the jungle
Welcome to the jungle
Watch it bring you to your shu n,n,n,,n,n,,n,n,n,,n,n,,n,n,,n knees, knees
In the jungle
Welcome to the jungle
Feel my, my, my serpentine
In the jungle
Welcome to the jungle
Watch it bring you to your shun n,n,n,n,,n,n,,n,n,,n,n,,n.n, knees, knees
In the jungle
Welcome to the jungle
Watch it bring you to your
It's gonna bring you down!
Ha!

ProTabs promo.jpg

Onbeperkt en gratis toegang tot alle 25.000
Tabs & Chords en direct meespelen met

Artiest Liedje

...

Gitaarakkoorden guns n roses - Welcome to the jungle

Dankzij de bladmuziek op deze pagina wordt het een stuk makkelijker om met de gitaar mee te spelen met Welcome to the jungle van guns n roses De ProTabs van Gitaartabs worden door onze professionele gitaardocenten samengesteld. De tabs en chords zijn door leden zelf geplaatst. Deze undefined van guns n roses met Welcome to the jungle is voor je geschreven door gitaartabs

Tabs & Chords van guns n roses - Welcome to the jungle

Bij de ProTabs delen we niet alleen de tablatuur maar ook de speelwijze van Welcome to the jungle Met een beetje gitaar ervaring moet je dit gitaarliedje zeker kunnen spelen, maar als het niet lukt zijn we er altijd om je te helpen. Door een gratis account aan te maken krijg je niet alleen toegang tot deze tab ,akkoorden & tabs van Welcome to the jungle maar kun je ook onbeperkt meespelen met een van de meer dan 25.000 andere tabs & chords in onze database.

Plaats opmerking

Beoordeel deze song

Rate UsDon’t love itNot greatGoodGreatLove itRate Us

Bedankt voor je beoordeling!