Symbol in my driveway

Gitaarliedjes, tabs & akkoorden (chords) Symbol in my driveway - jack johnson

Songtype: Tab

arrow&v

Markeer als favoriet

Favoriet

Gemarkeerd als favoriet

Capo:

0

jack johnson

jack johnson

Song
Album
Categorie

Symbol in my driveway

on and on

Downloads
331
Niveau
1
Geplaatst door
sam
ProTabs-promo.jpg

|----------------------------------------------------------------------------------------------------|
|----------------------------------------------------------------------------------------------------|
|----------------------------------------------------------------------------------------------------|
|------------------------------------------------9--9--11-9--9--9--11-9--9--9--11-9--9--9--8--8--7--7|
|7--7--9--7--7--7--9--7--7--7--9--7--7--7--9--7--7--7--7--7--7--7--7--7--7--7--7--7--7--7--6--6--5--5|
|5--5--5--5--5--5--5--5--5--5--5--5--5--5--5--5------------------------------------------------------|

|----------------------------------------------------------------------------------------------------|
|----------------------------------------------------------------------------------------------------|
|----------------------------------------------------------------------------------------------------|
|7--7--9--7--7--7--9--7--7--7--9--7--7--7--9--7--------------------------9--9--11-9--9--9--11-9------|
|5--5--5--5--5--5--5--5--5--5--5--5--5--5--5--5--7--7--9--7--7--7--9--7--7--7--7--7--7--7--7--7------|
|------------------------------------------------5--5--5--5--5--5--5--5------------------------------|

Heel het liedje lang herhalen.


Songtekst:

i've got a symbol in my driveway
i've got a hundred million dollar friends
i've got you a brand new weapon
lets see how destructive we can be

i've got a brand new set of stencils
ive been connecting all the dots
got my plans in a zip lock bag
lets see how unproductive we can be

i've got a light bulb full of anger
and i can switch it on and off
in situations it can be so bright
i cant believe, how pathetic we can be

i've got a perfect set of blueprints
im gonna build somebody else
might cost a little more than money
but whats man without his wealth

i've got a phosphorescent secret
but dont you tell nobody else
next thing you know
the whole world will be talking
about all the clues they got
they just ain't no use
they've got us fooled

ProTabs promo.jpg

Onbeperkt en gratis toegang tot alle 25.000
Tabs & Chords en direct meespelen met

Artiest Liedje

...

Gitaarakkoorden jack johnson - Symbol in my driveway

Dankzij de bladmuziek op deze pagina wordt het een stuk makkelijker om met de gitaar mee te spelen met Symbol in my driveway van jack johnson De ProTabs van Gitaartabs worden door onze professionele gitaardocenten samengesteld. De tabs en chords zijn door leden zelf geplaatst. Deze undefined van jack johnson met Symbol in my driveway is voor je geschreven door sam

Tabs & Chords van jack johnson - Symbol in my driveway

Bij de ProTabs delen we niet alleen de tablatuur maar ook de speelwijze van Symbol in my driveway Met een beetje gitaar ervaring moet je dit gitaarliedje zeker kunnen spelen, maar als het niet lukt zijn we er altijd om je te helpen. Door een gratis account aan te maken krijg je niet alleen toegang tot deze tab ,akkoorden & tabs van Symbol in my driveway maar kun je ook onbeperkt meespelen met een van de meer dan 25.000 andere tabs & chords in onze database.

Plaats opmerking

Beoordeel deze song

Rate UsDon’t love itNot greatGoodGreatLove itRate Us

Bedankt voor je beoordeling!