Born under a bad sign

Gitaarliedjes, tabs & akkoorden (chords) Born under a bad sign - jimi hendrix

Songtype: Tab

arrow&v

Markeer als favoriet

Favoriet

Gemarkeerd als favoriet

Capo:

0

jimi hendrix

jimi hendrix

Song
Album
Categorie

Born under a bad sign

Downloads
1403
Niveau
3

Geplaatst door
rick
ProTabs-promo.jpg

|------------|--------12pb14==(12)r-10-||
|------------|-------------------------||
|------------|-------------------------||
|------------|-------------------------||
|------------|-------------------------||
|------------|-------------------------||


N.C.(B7)
~~~ ~~~~~~~~~~~~~
|3-|
S E. E +E S S E E E +Q E a e E S S S S S E
|-12-----10b11==(10)r----------------|-----------7-7-----------------|
|----12-------------------------------|-------x-7-----10-7------------|
|----------------------x/-------9b11==|=(9)r---------------7--9-------|
|----------------------x/-x-----------|----------------------(0)------|
|----------------------x/-------------|--------------------------9----|
|-------------------------------------|-------------------------------|


~ ~~~~~~ ~~~~~~~~~~~~~
|---3---| |---3---|
a Q T T T T E H Q Q +E E E +E E E
|-----------------------|-----------------------------------10-------|
|-----------------------|----10b12===(10)r-10-10pb12==(10)r----10b12-|
|---7-------------------|--------------------------------------------|
|-x----9p7--------------|--------------------------------------------|
|----------h9-7p--------|--------------------------------------------|
|-----------------------|--------------------------------------------|


~~~~
|---5----| |-3-|
S S S S S +S T T S S S T T E. +Q
|------------------------------------------------|
|-10-7-10-7----------------------7---------------|
|-----------9b11==(9)r-9-7---7-9---7-9b11==(9)r--|
|--------------------------9---------------------|
|------------------------------------------------|
|------------------------------------------------|


|-3--| |-3-|
E S S S S E S S +S +S S S +Q
|----------------------------------------------|
|----------------7---------------7-7-----(7)---|
|-9b11-9-7---------9b11==(9)r(9)---9b11==(9)r--|
|----------9-----------------------------------|
|----------------------------------------------|
|----------------------------------------------|


~~~~~~~
|-------3-------| |-3-| |3-|
S a +S +T T S S S +S S E E a +E S S S E Q +S S S S S S S S S S E
|--------------------------------------------------------------|------------------------------|
|-7--------------------------------10--------------------------|------------------------------|
|---9b11==(9)r(9)p7---7h9b11==(9)r----9b11---9pb11r(9)-7-9-7---|-7--(7)-----------------------|
|-------------------9----------------------------------------9-|----------7h9-----------------|
|--------------------------------------------------------------|----------7---7-9-5-7-5-------|
|--------------------------------------------------------------|------------------------5h7--|


(F#7) (E7)
|3| |--3--|
e E a E E S e E E S T T E E E +S E E S S E E
|----------------------------|------------------------------------|
|----------------------------|------------------------------------|
|----------------------------|------------------------------------|
|-----x---h7-7-------7-7-----|---x-7b9==(7)r-7-9-8-7--------------|
|-----x-7------9p7-------9p7-|---x--------------------------------|
|-/x/------------------------|-----------------------10-(10)b10.5-|


(B7)
~~ ~~~~~~
Q e E E E E E Q. S S S S S S +E E
|-------x--------------7---10b10.5-|-7----7------------------------||
|-------x---------10---------------|--------10-7-------------------||
|---------9-9b11==(9)-(9)r---------|-------------7b7.5-------------||
|-7tr9-----------------------------|-------------------^9----------||
|----------------------------------|-------------------^9-9-(9)----||
|----------------------------------|-------------------------------||


N.C.(B7)
~~~~~ ~~~~~
S S S s e E +E S S Q E a +Q +E S E. a +E S S
|-9-----7------------------7------|---------------------------------------|
|---------10-10pb12==(10)r---7----|---10b12==(10)r=(10)-7-----------------|
|---9-7---------------------------|-----------------------9b11==9r(9)-7---|
|---------------------------------|-------------------------------------9-|
|---------------------------------|---------------------------------------|
|---------------------------------|---------------------------------------|


~~~~
|-3--|
S +S +E S S S E E. S +S E. +e E H Q
|----------------------------------------------|------------------------|
|----------------------------------------------|-----------------7b9----|
|-9b10==(9)b10==(9)r9p7---------7b9==(7)r-7b9==|=(7)r---9b11----(7)b8---|
|-----------------------h9---------------------|------------------------|
|----------------------------------------------|------------------------|
|----------------------------------------------|------------------------|


|3| |-----6------| |-3-|
E +E E S S S S S S S S S S S S S +S
|--------------------------------7-------------------|
|-7b9==(7)r-7---7--------------7---10-7--------------|
|-------------9---9-7---7-9b10----------9-9b11==(9)r-|
|---------------------9------------------------------|
|----------------------------------------------------|
|----------------------------------------------------|


|-3-| |3-| |--3--|
T T E. E s s S S S a E S S S S S S
|------------7-10-7---10s12-10-12-10-12-10----|
|----------7--------7----------------------12-|
|-9p7-----------------------------------------|
|---------------------------------------------|
|---------------------------------------------|
|---------------------------------------------|


~
|--3---| |-3--|
S S s S S E S E E E e E
|-10-(0)------10-10b11-7-7----------12b13-|
|--------10----------------10----x-------|
|------------------------------x/-x-------|
|------------------------------x/-x-------|
|------------------------------x/---------|
|-----------------------------------------|


(F#7)
|---3---| |-3--| |-3--|
E +S E +E E S s E a E +S S S E E S S S S S E E E S S
|-12b13==(12)r-10b11==(10)r-----x-----------9---|-12b14-12b13-9-9-----------9-9---9--|
|--------------------------------x---8s9-(9)---9-|---------------9-12-9--------9------|
|------------------------------x-----------------|----------------------11-9-----------|
|------------------------------------------------|-------------------------------------|
|------------------------------------------------|-------------------------------------|
|------------------------------------------------|-------------------------------------|


(E7)
~~~~~~
|-3--| |-3-|
S S S S +s E. S S S +S S S S S S S
|-----7---------------------7---10b12==(10)r-10-7---10-7---|
|-------10b11==(10)r-10pb12---7-------------------7----7-7-|
|-9-7------------------------------------------------------|
|-9--------------------------------------------------------|
|----------------------------------------------------------|
|----------------------------------------------------------|


(B7)
~~ ~~~~~~~ PM
|3| |-3--| |-3-| |3|
t t E. E S E e E Q S S S +E S S S E S S S E a E S S
|-10-10-7------7-10-10b12-10b10.5--|---7-10b12==(10)r-10-7--------------------------||
|------------7---------------------|-7---------------------7------------------------||
|----------------------------------|-------------------------9-9-7b7.5--------------||
|----------------------------------|-----------------------------------9-------7h9--||
|----------------------------------|-------------------------------------9-x---0----||
|----------------------------------|-----------------------------------------x------||


|---3---| |-3-| |-3-| |-3-|
S S S a E S S S S S e E S S S S S S
|------------------------------------------------|
|-----------------(7)h(8)-7-----x/-9-7h8h9-7h8h9-|
|-(7)h(8)p(7)-7h8--7h==8--7h8p7-x/-9-7h8h9-7h8h9-|
|---------------7--7------------x/-9-7h8h9-7h8h9-|
|------------------------------------------------|
|------------------------------------------------|


|-3-|
e S S S S E e S S S S S S S
|--------------------x-----------------|
|-x-----(7)h(8)------x-----------7-----|
|-x-7h8--7h==8--7tr8---7h9-7h8h9-7--9--|
|-x-7----7------7------7h9-7h8h9---(9)-|
|--------------------------------------|
|--------------------------------------|


|-3-| |-3-| |-3-| |3-| |-3-|
E S S S S E e S S S S S S S S S e S S S S E e E E S S S S
|----------------(9)-------------------|----------------(9)-----------------|
|--------------------7-----7-----------|-x-7---7------------/9-/(9)p7-----x-|
|---7-8-7h8-7tr8-----7-----7h8h9-7h8h9-|-x-7h8-7h8-7tr8-----/9--/9p=7h9p7---|
|---7---7---7--------7h8h9-7h8h9-7h8h9-|---7-------7--------/9--/9p=7h9p7---|
|-x------------------------------------|------------------------------------|
|-x------------------------------------|------------------------------------|


|-3--| |3| |3| |3|
E E E E S e a E S E S E S
|------------------------------------|
|------------------x-x---------------|
|---7tr8-7tr8-7tr8-x-x-7h9p7h9p7h9p7-|
|-x-7----7----7------x-7h9p7h9p7h9p7-|
|-x----------------------------------|
|------------------------------------|


|3| |3|
S S E E S S E E S E S S S
|------------------------------------------|
|--------7-----7------------x-----9p7-9p7--|
|--------7tr8--7tr8---------x-9p7-9p7-9p7--|
|-7-----------(7)---(7)p(0)---9p7-9p7-9p7--|
|---h(9)-----------------------------------|
|------------------------------------------|


|3|
e S S E E e S S S S S S S e E E a E E S S S S E
|-------------------------------|---x---------------------------|
|---7-----------------------9p7-|-x---7-------------x-----------|
|---7h8-7tr8-7tr8-x-9p7-9p7-9p7-|-x---7tr8-7tr8-----x-9p7-9p7-9-|
|-------7---------x-9p7-9p7-9p7-|-----7----7----7h8-x-9p7-9p7-9-|
|-----------------x-------------|-------------------------------|
|-7-----------------------------|-------------------------------|


~~~~
e S +S +Q S S S S T T T T E
|-------------------------------------------|
|-------------------------------------------|
|-x-9b11==(9)-(9)r--9b11-9-7---7------------|
|-x--------------------------9---h9-7p------|
|--------------------------------------h9---|
|-------------------------------------------|


Q E E Q a S S S S
|-----------7--------------------|
|----------------10-7------------|
|------9b11----x------9b11-9b9.5-|
|--------------------------------|
|--------------------------------|
|--------------------------------|


~ ~~
S S Q S S E E Q S T T Q. S S S S S T T S S
|-------------------|--------------------------------|
|-------------------|--------------------------------|
|-7-----------------|------------7-------------------|
|---9----7-9p7------|---7h8s9------9-7-9-7-----------|
|-----9-------------|----------------------7h8p7p5---|
|-------------------|--------------------------------|


a E S S +S E S H S E. +E +E S S S S Q
|-----------------------|--------------------------------------|
|-----------------------|--------------------------------------|
|-----------------------|---9b11==(9)r(9)-9b11---7b7.5-9-9b11--|
|-----------------------|--------------------------------------|
|-7s8-------------------|--------------------------------------|
|-----7-7-(7)s2s11------|--------------------------------------|


~
|------3------| |-3-| |-----3------|
S S T +T T T T T E E E S S S +E a +E +E
|----------------------------(0)---------------------------|
|-7--------------------------------------------------------|
|---9b11-9pb11r(9)p7---7-----------------------------------|
|--------------------9---9p7-------7h8s9-(9)-7b9==(7)r(7)--|
|----------------------------------------------------------|
|----------------------------------------------------------|


~~~
|-3--| |--3---|
+Q S S S S S S S S S S S S a S S
|---------------------------------7-------10-|
|-------------------------------7---10s12----|
|--------------------------9b11--------------|
|-(7)--9-7--------------x/-------------------|
|----------9-8-7--------x/-------------------|
|----------------10p7------------------------|


|--3---|
E a +S S S E E E E S E.
|-12b14==12r(12)p10------12b14-10b12-----10b12-|
|-------------------12-------------------------|
|----------------------------------------------|
|----------------------------------------------|
|----------------------------------------------|
|----------------------------------------------|


~~~~~~~ ~~
|---3---|
S E S +E e E E E E E +S E S E. E E S E.
|-10----10-(10)-x-12b14-12-10-12b14-|-12b14==(12)r-x---12b14-10-----10b12-|
|----12-----------------------------|--------------x----------------------|
|-----------------------------------|--------------x----------------------|
|-----------------------------------|-------------------------------------|
|-----------------------------------|-------------------------------------|
|-----------------------------------|-------------------------------------|


~~~~~~~
S S S S +E E S S E S E.
|-10--7---10-(10)-----12pb14r(12)-12-10-12b14--|
|-------7--------------------------------------|
|-(0)-------------(0)---------(0)--------------|
|----------------------------------------------|
|----------------------------------------------|
|----------------------------------------------|


~~~~~
|3|
E. S S E. E +E S S S S E E E S e S E. +E. +T +T
|-10b11-----10b12-10b12==(10)r------(7)---|-10b12-10s7---7---12b14==(12)-(12)r(12)-|
|---------------------------------/6--7--7-|------------7---------------------------|
|------------------------------------------|----------------------------------------|
|------------------------------------------|----------------------------------------|
|------------------------------------------|----------------------------------------|
|------------------------------------------|----------------------------------------|


~~
|--3--|
S S S S S S S S S E E S E +S
|-10----10-12-12b14-12-10----10-----------------------|
|----12-------------------12----12-10----------------|
|----------------------------------------/9b11==(9)r--|
|-----------------------------------------------------|
|-----------------------------------------------------|
|-----------------------------------------------------|


|-3--| |-----5-----| |-3-| |-3--|
S S S T T T T S S S S S S T T T T T T +E S S S S
|---7------10-7------7-----------------------------------------7------|
|-7---10-7------7-10--------10p7-----------------------------7---10-7-|
|----------------------9b11------9b11-9p7---------9b11==(9)r----------|
|-----------------------------------------h9-7p-----------------------|
|---------------------------------------------------------------------|
|---------------------------------------------------------------------|

ProTabs promo.jpg

Onbeperkt en gratis toegang tot alle 25.000
Tabs & Chords en direct meespelen met

Artiest Liedje

...

Gitaarakkoorden jimi hendrix - Born under a bad sign

Dankzij de bladmuziek op deze pagina wordt het een stuk makkelijker om met de gitaar mee te spelen met Born under a bad sign van jimi hendrix De ProTabs van Gitaartabs worden door onze professionele gitaardocenten samengesteld. De tabs en chords zijn door leden zelf geplaatst. Deze undefined van jimi hendrix met Born under a bad sign is voor je geschreven door rick

Tabs & Chords van jimi hendrix - Born under a bad sign

Bij de ProTabs delen we niet alleen de tablatuur maar ook de speelwijze van Born under a bad sign Met een beetje gitaar ervaring moet je dit gitaarliedje zeker kunnen spelen, maar als het niet lukt zijn we er altijd om je te helpen. Door een gratis account aan te maken krijg je niet alleen toegang tot deze tab ,akkoorden & tabs van Born under a bad sign maar kun je ook onbeperkt meespelen met een van de meer dan 25.000 andere tabs & chords in onze database.

Plaats opmerking

Verstuur

Beoordeel deze song

Rate UsDon’t love itNot greatGoodGreatLove itRate Us

Bedankt voor je beoordeling!