Trash

Gitaarliedjes, tabs & akkoorden (chords) Trash - korn

Songtype: Tab

arrow&v

Markeer als favoriet

Favoriet

Gemarkeerd als favoriet

Capo:

0

korn

korn

Song
Album
Categorie

Trash

issues

Downloads
500
Niveau
2
Geplaatst door
sinn
ProTabs-promo.jpg

Intro en Refrein Gitaar 1
D|---------------------------------------------------|
A|---------------------------------------------------|
F|---------4-----------4--------------4--------4-----|
C|-----4-----------4--------------4--------4---------|
G|-2-------------------------3-----------------------|
D|-2-------------------------3-----------------------|
A|-0-------------------------1-----------------------|

Gitaar 2
d|--------------------------------------------------|
A|/7---------------5--------/10--------8----7-----5-|
F|--------------------------------------------------|
C|--------------------------------------------------|
G|--------------------------------------------------|
D|--------------------------------------------------|
A|--------------------------------------------------|

Gitaar 1
d|---------------------------------------------------|
A|---------------------------------------------------|
F|---------4-----------4--------------4--------4-----|
C|-----4-----------4--------------4--------4---------|
G|-2-------------------------3-----------------------|
D|-2-------------------------3-----------------------|
A|-0-------------------------1-----------------------|

Gitaar 2
d|-------------------------|--------------------------|
A|/7---------------5-------|/10--12---8------------7--|
F|-------------------------|--------------------------|
C|-------------------------|--------------------------|
G|-------------------------|--------------------------|
D|-------------------------|--------------------------|
A|-------------------------|--------------------------|

Voor Refrein:
d|------------------------|-----------------------|
A|------------------------|-----------------------|
F|------------------------|-----------------------|
C|------------------------|-----------------------|
G|------------------------|-----------------------|
D|--4-2-4-4-4-2-4-2-4---5-|-4-2-4-4-4-2-4-2-4-5---|
A|--2-2-2-2-2-2-2-2-2---3-|-2-2-2-2-2-2-2-2-2-3---|

Tekst:
How did it start?
Well, I dont know.
I just feel the craving.
I see the flesh and it smells fresh.
And it's just there for the taking.
These little girls they make me feel so god damn
exhilarated.
I feel them up, I can't give it up.
The pain that I'm just erasing.
I tell my lies and I despise.
Every second I'm with you.
So I run away and you still stay.
So what the fuck is with you.

Your feelings I can't help but rape them.
I'm sorry I don't feel the same.
My heart inside is constantly hating.
I'm sorry I just throw you away.

I don't know why I'm so fucking cold?
I dont know why it hurts me.
All I wanna do is get with you.
And make the pain go away.
Why do I have a conscience?
All it does is fuck with me.
Why do I have this torment?
All I want to do is fuck it away.

I tell my lies and I despise.
Every second I'm with you.
So I run away and you still stay.
So what the fuck is with you.

Your feelings I can't help but rape them.
I'm sorry I don't feel the same.
My heart inside is constantly hating.
I'm sorry I just throw you away.

I just throw you away.
I just throw you away.
I just throw you away.
I just throw you away.

ProTabs promo.jpg

Onbeperkt en gratis toegang tot alle 25.000
Tabs & Chords en direct meespelen met

Artiest Liedje

...

Gitaarakkoorden korn - Trash

Dankzij de bladmuziek op deze pagina wordt het een stuk makkelijker om met de gitaar mee te spelen met Trash van korn De ProTabs van Gitaartabs worden door onze professionele gitaardocenten samengesteld. De tabs en chords zijn door leden zelf geplaatst. Deze undefined van korn met Trash is voor je geschreven door sinn

Tabs & Chords van korn - Trash

Bij de ProTabs delen we niet alleen de tablatuur maar ook de speelwijze van Trash Met een beetje gitaar ervaring moet je dit gitaarliedje zeker kunnen spelen, maar als het niet lukt zijn we er altijd om je te helpen. Door een gratis account aan te maken krijg je niet alleen toegang tot deze tab ,akkoorden & tabs van Trash maar kun je ook onbeperkt meespelen met een van de meer dan 25.000 andere tabs & chords in onze database.

Plaats opmerking

Beoordeel deze song

Rate UsDon’t love itNot greatGoodGreatLove itRate Us

Bedankt voor je beoordeling!