A place for my head

Gitaarliedjes, tabs & akkoorden (chords) A place for my head - linkin park

Songtype: Tab

arrow&v

Markeer als favoriet

Favoriet

Gemarkeerd als favoriet

Capo:

0

linkin park

linkin park

Song
Album
Categorie

A place for my head

Downloads
117
Niveau
2
Geplaatst door
gitaartabs
ProTabs-promo.jpg

Linkin Park - A Place For My Head

Tabbed by Uchiha 23

Tuning D#-G#-C#-F#-A#-D#

A#|-----0-0-0-1-0-------------------| (Repeat x8)
F#|---------------2-0-0-----------2-|
C#|-2-2-----------------3-3-3-2-3---|


G#|-----2-2-2-3-2-0-----------------| (Repeat this in the verse)
D#|-0-0-------------3-3-1-1-1-0-1-3-|

Verse:

I watch how the
Em
Moon sits in the sky in the dark night
C
Shining with the light from the sun
Em
The sun doesn't give light to the moon assuming
C
The moon’s going to owe it one
Em
It makes me think of how you act to me You do
C
Favors and then rapidly You just
Em
Turn around and start asking me about
C
Things that you want back from me
Em
I’m sick of the tension sick of the hunger
C
Sick of you acting like I owe you this
Em
Find another place to feed your greed
C
While I find a place to rest

Chorus:

Em C
I want to be in another place
Em D
I hate when you say you don’t understand
(You’ll see it's not meant to be)
Em C Em
I want to be in the energy, not with the enemy
D (C Em)
A place for my head

Verse:

Em
Maybe someday I’ll be just like you and
C
Step on people like you do and Run
Em
Away the people I thought I knew
C
I remember back then who you were
Em
You used to be calm used to be strong
C
Used to be generous but you should’ve known That you’d
Em
Wear out your welcome now you see
C
How quiet it is all alone I’m so
Em
Sick of the tension sick of the hunger
Sick of you acting like I owe you this
C
Find another place to feed your greed
While I find a place to rest I’m so
Em
Sick of the tension sick of the hunger
Sick of you acting like I owe you this
C
Find another place to feed your greed
While I find a place to rest

Chorus:

Em C
I want to be in another place
Em D
I hate when you say you don’t understand
(You’ll see it's not meant to be)
Em C Em
I want to be in the energy, not with the enemy
D (C Em)
A place for my head

Em
You try to take the best of me go away
You try to take the best of me go away
You try to take the best of me go away
You try to take the best of me go away
You try to take the best of me go away
Em C
You try to take the best of me go away
Em C
You try to take the best of me go away
Em C
You try to take the best of me go away
Em C
You try to take the best of me go away
Em C
You try to take the best of me go away

Chorus:

Em C
I want to be in another place
Em D
I hate when you say you don’t understand
(You’ll see it's not meant to be)
Em C Em
I want to be in the energy, not with the enemy
D (C Em)
A place for my head

A#|---------------------------------3-| (Repeat 4x)
F#|---------------------------------2-|
C#|-2-2--2-2-2-2--2-2-2-2--2-2-2-2--0-|
G#|-2-2--2-2-2-2--2-2-2-2--2-2-2-2----|
D#|-0-0--0-0-0-0--0-0-0-0--0-0-0-0----|

Em
I’m so sick of the tension sick of the hunger
D
Sick of you acting like I owe you this
Em
Find another place to feed your greed
D
While I find a place to rest
Em
I’m so sick of the tension sick of the hunger
D
Sick of you acting like I owe you this
Em
Find another place to feed your greed
D
While I find a place to rest

End in Em




D#
3 fr.
e -x-|---|---|---|---|
B ---|-x-|---|---|---|
G -x-|---|---|---|---|
D ---|---|-x-|---|---|
A ---|---|---|-x-|---|
E ---|---|---|-o-|---|
G#

e ---|---|---|-x-|---|
B -x-|---|---|---|---|
G -x-|---|---|---|---|
D -x-|---|---|---|---|
A ---|---|---|---|---|
E ---|---|---|---|---|
C#

e -x-|---|---|---|---|
B ---|-x-|---|---|---|
G -x-|---|---|---|---|
D ---|---|-x-|---|---|
A ---|---|---|-x-|---|
E ---|---|---|-o-|---|
F#

e ---|-x-|---|---|---|
B ---|-x-|---|---|---|
G ---|---|-x-|---|---|
D ---|---|---|-x-|---|
A ---|---|---|-x-|---|
E ---|-x-|---|---|---|
A#

e -o-|---|---|---|---|
B ---|---|-x-|---|---|
G ---|---|-x-|---|---|
D ---|---|-x-|---|---|
A -x-|---|---|---|---|
E -o-|---|---|---|---|
Em

e ---|---|---|---|---|
B ---|---|---|---|---|
G ---|---|---|---|---|
D ---|-x-|---|---|---|
A ---|-x-|---|---|---|
E ---|---|---|---|---|
C

e ---|---|---|---|---|
B -x-|---|---|---|---|
G ---|---|---|---|---|
D ---|-x-|---|---|---|
A ---|---|-x-|---|---|
E ---|---|-o-|---|---|
D

e ---|-x-|---|---|---|
B ---|---|-x-|---|---|
G ---|-x-|---|---|---|
D ---|---|---|---|---|
A ---|---|---|---|---|
E ---|---|---|---|---|

ProTabs promo.jpg

Onbeperkt en gratis toegang tot alle 25.000
Tabs & Chords en direct meespelen met

Artiest Liedje

...

Gitaarakkoorden linkin park - A place for my head

Dankzij de bladmuziek op deze pagina wordt het een stuk makkelijker om met de gitaar mee te spelen met A place for my head van linkin park De ProTabs van Gitaartabs worden door onze professionele gitaardocenten samengesteld. De tabs en chords zijn door leden zelf geplaatst. Deze undefined van linkin park met A place for my head is voor je geschreven door gitaartabs

Tabs & Chords van linkin park - A place for my head

Bij de ProTabs delen we niet alleen de tablatuur maar ook de speelwijze van A place for my head Met een beetje gitaar ervaring moet je dit gitaarliedje zeker kunnen spelen, maar als het niet lukt zijn we er altijd om je te helpen. Door een gratis account aan te maken krijg je niet alleen toegang tot deze tab ,akkoorden & tabs van A place for my head maar kun je ook onbeperkt meespelen met een van de meer dan 25.000 andere tabs & chords in onze database.

Plaats opmerking

Beoordeel deze song

Rate UsDon’t love itNot greatGoodGreatLove itRate Us

Bedankt voor je beoordeling!