A design for life

Gitaarliedjes, tabs & akkoorden (chords) A design for life - manic street preachers

Songtype: Tab

arrow&v

Markeer als favoriet

Favoriet

Gemarkeerd als favoriet

Capo:

0

manic street preachers

manic street preachers

Song
Album
Categorie

A design for life

Downloads
1920
Niveau
5
Geplaatst door
Grieve
ProTabs-promo.jpg

Cmaj7
e|--------------------------------------------------------|
B|--------0-----------0-----------0-----------0-----------|
G|------5---5-------5---5-------5---5-------5---5---------|
D|----5-------5---5-------5---5-------5---5-------5-------|
A|--3-----------3-----------3-----------3-----------------|
E|--------------------------------------------------------|

Cmaj7
e|--------------------------------------------------------|
B|--------0-----------0-----------0-----------0-----------|
G|------5---5-------5---5-------5---5-------5---5---------|
D|----5-------5---5-------5---5-------5---5-------5-------|
A|--3-----------3-----------3-----------3-----------------|
E|--------------------------------------------------------|
Libraries gave us power

Dmadd6
e|--------------------------------------------------------|
B|--------0-----------0-----------0-----------0-----------|
G|------5---5-------5---5-------5---5-------5---5---------|
D|----3-------3---3-------3---3-------3---3-------3-------|
A|--5-----------5-----------5-----------5-----------------|
E|--------------------------------------------------------|
Then work came and made us free

G7
e|--------------------------------------------------------|
B|--------------------------------------------------------|
G|--------4-----------4-----------4-----------4-----------|
D|------3---3-------3---3-------3---3-------3---3---------|
A|----5-------5---5-------5---5-------5---5-------5-------|
E|--3-----------3-----------3-----------3-----------------|
At what price now

D#maj7 Dm7b5
e|---------------------------|----------------------------|
B|--------8-----------8------|--------6-----------6-------|
G|------7---7-------7---7----|------5---5-------5---5-----|
D|----5-------5---5-------5--|----6-------6---6-------6---|
A|--6-----------6------------|--5-----------5-------------|
E|---------------------------|----------------------------|
For a shallow piece of dignity

Cmaj7
e|--------------------------------------------------------|
B|--------0-----------0-----------0-----------0-----------|
G|------5---5-------5---5-------5---5-------5---5---------|
D|----5-------5---5-------5---5-------5---5-------5-------|
A|--3-----------3-----------3-----------3-----------------|
E|--------------------------------------------------------|

Cmaj7
e|--------------------------------------------------------|
B|--------0-----------0-----------0-----------0-----------|
G|------5---5-------5---5-------5---5-------5---5---------|
D|----5-------5---5-------5---5-------5---5-------5-------|
A|--3-----------3-----------3-----------3-----------------|
E|--------------------------------------------------------|
I wish I had a bottle

Dmadd6
E|--------------------------------------------------------|
B|--------0-----------0-----------0-----------0-----------|
G|------5---5-------5---5-------5---5-------5---5---------|
D|----3-------3---3-------3---3-------3---3-------3-------|
A|--5-----------5-----------5-----------5-----------------|
E|--------------------------------------------------------|
Right here in my dirty face

G7
e|--------------------------------------------------------|
B|--------------------------------------------------------|
G|--------4-----------4-----------4-----------4-----------|
D|------3---3-------3---3-------3---3-------3---3---------|
A|----5-------5---5-------5---5-------5---5-------5-------|
E|--3-----------3-----------3-----------3-----------------|
To wear the scars

D#maj7 Dm7b5
e|---------------------------|----------------------------|
B|--------8-----------8------|--------6-----------6-------|
G|------7---7-------7---7----|------5---5-------5---5-----|
D|----5-------5---5-------5--|----6-------6---6-------6---|
A|--6-----------6------------|--5-----------5-------------|
E|---------------------------|----------------------------|
To show from where I

Cmaj7
e|--------------------------------------------------------|
B|--------0-----------0-----------0------0----------------|
G|------5---5-------5---5-------5---5----5----------------|
D|----5-------5---5-------5---5-------5--5----------------|
A|--3-----------3-----------3------------3----------------|
E|--------------------------------------------------------|
Came


Dm G
We don't talk about love
Dm G
We only want to get drunk
E Am
And we are not allowed to spend
F
As we are told that this is the end


Am F
A design for life
Am F
A design for life
Am F
A design for life
F
A design for

Cmaj7
e|--------------------------------------------------------|
B|--------0-----------0-----------0-----------0-----------|
G|------5---5-------5---5-------5---5-------5---5---------|
D|----5-------5---5-------5---5-------5---5-------5-------|
A|--3-----------3-----------3-----------3-----------------|
E|--------------------------------------------------------|
Life

Cmaj7
e|--------------------------------------------------------|
B|--------0-----------0-----------0-----------0-----------|
G|------5---5-------5---5-------5---5-------5---5---------|
D|----5-------5---5-------5---5-------5---5-------5-------|
A|--3-----------3-----------3-----------3-----------------|
E|--------------------------------------------------------|
I wish a had a bottle
Dmadd6
e|--------------------------------------------------------|
B|--------0-----------0-----------0-----------0-----------|
G|------5---5-------5---5-------5---5-------5---5---------|
D|----3-------3---3-------3---3-------3---3-------3-------|
A|--5-----------5-----------5-----------5-----------------|
E|--------------------------------------------------------|
Right here in my dirty face

G7
e|--------------------------------------------------------|
B|--------------------------------------------------------|
G|--------4-----------4-----------4-----------4-----------|
D|------3---3-------3---3-------3---3-------3---3---------|
A|----5-------5---5-------5---5-------5---5-------5-------|
E|--3-----------3-----------3-----------3-----------------|
To wear the scars

D#maj7 Dm7b5
e|---------------------------|----------------------------|
B|--------8-----------8------|--------6-----------6-------|
G|------7---7-------7---7----|------5---5-------5---5-----|
D|----5-------5---5-------5--|----6-------6---6-------6---|
A|--6-----------6------------|--5-----------5-------------|
E|---------------------------|----------------------------|
To show from where I



Cmaj7
e|--------------------------------------------------------|
B|--------0-----------0-----------0------0----------------|
G|------5---5-------5---5-------5---5----5----------------|
D|----5-------5---5-------5---5-------5--5----------------|
A|--3-----------3-----------3------------3----------------|
E|--------------------------------------------------------|
Came


Dm G
We don't talk about love
Dm G
We only want to get drunk
E Am
And we are not allowed to spend
F
As we are told that this is the end


Am F
A design for life
Am F
A design for life
Am F
A design for life
F Cmaj7 Dm7 G Eb D C
A design for life


Dm G
We don't talk about love
Dm G
We only want to get drunk
E Am
And we are not allowed to spend
F
As we are told that this is the end


Am F
A design for life
Am F
A design for life
Am F
A design for life
F
A design for

ProTabs promo.jpg

Onbeperkt en gratis toegang tot alle 25.000
Tabs & Chords en direct meespelen met

Artiest Liedje

...

Gitaarakkoorden manic street preachers - A design for life

Dankzij de bladmuziek op deze pagina wordt het een stuk makkelijker om met de gitaar mee te spelen met A design for life van manic street preachers De ProTabs van Gitaartabs worden door onze professionele gitaardocenten samengesteld. De tabs en chords zijn door leden zelf geplaatst. Deze undefined van manic street preachers met A design for life is voor je geschreven door Grieve

Tabs & Chords van manic street preachers - A design for life

Bij de ProTabs delen we niet alleen de tablatuur maar ook de speelwijze van A design for life Met een beetje gitaar ervaring moet je dit gitaarliedje zeker kunnen spelen, maar als het niet lukt zijn we er altijd om je te helpen. Door een gratis account aan te maken krijg je niet alleen toegang tot deze tab ,akkoorden & tabs van A design for life maar kun je ook onbeperkt meespelen met een van de meer dan 25.000 andere tabs & chords in onze database.

Plaats opmerking

Beoordeel deze song

Rate UsDon’t love itNot greatGoodGreatLove itRate Us

Bedankt voor je beoordeling!