Exo-politics

Gitaarliedjes, tabs & akkoorden (chords) Exo-politics - muse

Songtype: Tab

arrow&v

Markeer als favoriet

Favoriet

Gemarkeerd als favoriet

Capo:

0

muse

muse

Song
Album
Categorie

Exo-politics

Downloads
1108
Niveau
2
black holes & revelations

Geplaatst door
kevin
ProTabs-promo.jpg

Kevin Bruin

Muse - Exo-Politics

Intro:

e----------------------------------|
B----------------------------------|
G----------------------------------|
D------------2-3-3-2^--------------|
A--5-5-5-3-5---------3-------------| 2X
E----------------------------------|

Verse:

e----------------------------------|
B----------------------------------|
G----------------------------------|
D------------2-3-3-2^--------------|
A--5-5-5-3-5---------3-------------|2X
E----------------------------------|

e--------------------------------------------------|
B--------------------------------------------------|
G--------------------------------------------------|
D--------------------------------------------------|
A--1-1-1-0-1-3-----------------------3-5-5-5-3-5-3-|
E--------------1-1-1-0-1-3-5-5-5-3-5---------------|

e------------------------------------------------------|
B------------------------------------------------------|
G------------------------------------------------------|
D------------------------------------------------------|
A--1-1-1-0-1-3-------------------------------------3-5-|
E--------------1-1-1-0-1-3-5-5-5-3-5-6-5-5-6-5-3-5-----|

Verse:

Chorus:

e--------------------------------------------------------|
B--------------------------------------------------------|
G--7--------------10-------------------------------------|
D--7------10------10------8-------------3----------------|
A--5------10------8-------8---5-5-5-3-5---5-5-3-1-0-1-3--|
E---------8---------------6------------------------------|

e-------------------------------------------------------|
B-------------------------------------------------------|
G--7--------------10------------------------------------|
D--7------10------10------8------------3----------------|
A--5------10------8-------8--5-5-5-3-5---5-5-3-5-3-1-0--|
E---------8---------------6-----------------------------|

Bridge:

e------------------------------------------------|
B------------------------------------------------|
G--3-----------------7---------3-----------------|
D--3-----3-----7-----7---------3----3-----7------|
A--1-----3-----7-----5---------1----3-----7------|
E--------1-----5--------------------1-----5------|

Solo:

e--------------------------------------------------------------------------|
B--10-10-8---------------------------10-10-8-------------------------------|
G----------10-9-10------10-9-----------------10-9-10------10-9-------------|
D------------------10-7------10-7-7^-----------------10-7------10-7-7-8----|
A--------------------------------------------------------------------------|
E--------------------------------------------------------------------------|

e---------------------------------------------------------------------------------|
B--11-11-10-11-13-13-11-10-10h11p10-8---------10-8-10-10h11p10-8------------------|
G-------------------------------------10-9-----------------------10-9-10-10^-9-10-|
D------------------------------------------11-------------------------------------|
A---------------------------------------------------------------------------------|
E---------------------------------------------------------------------------------|

e----------------------------------------------------------------------|
B-11-11-10-11-13-13-11-10-10h11p10-8---------10-10-10-10--8---6--5-----|
G------------------------------------10-9-------------12^-10^-8^-7^----|
D-----------------------------------------11---------------------------|
A----------------------------------------------------------------------|
E----------------------------------------------------------------------|

Verse:

Chorus:

Bridge:

Intro:

ProTabs promo.jpg

Onbeperkt en gratis toegang tot alle 25.000
Tabs & Chords en direct meespelen met

Artiest Liedje

...

Gitaarakkoorden muse - Exo-politics

Dankzij de bladmuziek op deze pagina wordt het een stuk makkelijker om met de gitaar mee te spelen met Exo-politics van muse De ProTabs van Gitaartabs worden door onze professionele gitaardocenten samengesteld. De tabs en chords zijn door leden zelf geplaatst. Deze undefined van muse met Exo-politics is voor je geschreven door kevin

Tabs & Chords van muse - Exo-politics

Bij de ProTabs delen we niet alleen de tablatuur maar ook de speelwijze van Exo-politics Met een beetje gitaar ervaring moet je dit gitaarliedje zeker kunnen spelen, maar als het niet lukt zijn we er altijd om je te helpen. Door een gratis account aan te maken krijg je niet alleen toegang tot deze tab ,akkoorden & tabs van Exo-politics maar kun je ook onbeperkt meespelen met een van de meer dan 25.000 andere tabs & chords in onze database.

Plaats opmerking

Verstuur

Beoordeel deze song

Rate UsDon’t love itNot greatGoodGreatLove itRate Us

Bedankt voor je beoordeling!