Edelweiss

Gitaarliedjes, tabs & akkoorden (chords) Edelweiss - rodgers & hammerstein

Songtype: Tab

arrow&v

Markeer als favoriet

Favoriet

Gemarkeerd als favoriet

Capo:

0

rodgers & hammerstein

rodgers & hammerstein

Song
Album
Categorie

Edelweiss

sound of music

Downloads
3209
Niveau
2
Geplaatst door
gitaartabs
ProTabs-promo.jpg

G D G C G Em Am7 D7
Edelweiss, edelweiss |Every morning you greet me |
e-------|-5-|-3----|---|-----|-----------|--0--|---|
B--0--3-|---|----3-|-1-|-0-0-|-0---1---3-|-----|-3-|
G-------|---|------|---|-----|-----------|-----|---|
D-------|---|------|---|-----|-----------|-----|---|
A-------|---|------|---|-----|-----------|-----|---|
E-------|---|------|---|-----|-----------|-----|---|

G D G C G D7 G
Small and white, clean and bright| You look happy to meet me|
e----------|--5--|--3-------|------|--------|----0--2-|-3-|-3-|
B---0---3--|-----|--------3-|--1---|--0---3-|--3------|---|---|
G----------|-----|----------|------|--------|---------|---|---|
D----------|-----|----------|------|--------|---------|---|---|
A----------|-----|----------|------|--------|---------|---|---|
E----------|-----|----------|------|--------|---------|---|---|

D G C A7 D D7
Blossom of snow may you bloom and grow| Bloom and grow, forever |
e--5--------|--2---0-----|----------|-3-|---0----3-|--5---3-|-2-|---|
B-----3---3-|----------3-|--0----3--|---|----------|--------|---|-3-|
G-----------|------------|----------|---|----------|--------|---|---|
D-----------|------------|----------|---|----------|--------|---|---|
A-----------|------------|----------|---|----------|--------|---|---|
E-----------|------------|----------|---|----------|--------|---|---|

G D G C G D7 G
Edelweiss, edelweiss | Bless my homeland forever|
e------|-5-|--3----|---|---------|-----0---2|-3-|-3-|
B--0-3-|---|-----3-|-1-|--0---3--|--3-------|---|---|
G------|---|-------|---|---------|----------|---|---|
D------|---|-------|---|---------|----------|---|---|
A------|---|-------|---|---------|----------|---|---|
E------|---|-------|---|---------|----------|---|---|

ProTabs promo.jpg

Onbeperkt en gratis toegang tot alle 25.000
Tabs & Chords en direct meespelen met

Artiest Liedje

...

Gitaarakkoorden rodgers & hammerstein - Edelweiss

Dankzij de bladmuziek op deze pagina wordt het een stuk makkelijker om met de gitaar mee te spelen met Edelweiss van rodgers & hammerstein De ProTabs van Gitaartabs worden door onze professionele gitaardocenten samengesteld. De tabs en chords zijn door leden zelf geplaatst. Deze undefined van rodgers & hammerstein met Edelweiss is voor je geschreven door gitaartabs

Tabs & Chords van rodgers & hammerstein - Edelweiss

Bij de ProTabs delen we niet alleen de tablatuur maar ook de speelwijze van Edelweiss Met een beetje gitaar ervaring moet je dit gitaarliedje zeker kunnen spelen, maar als het niet lukt zijn we er altijd om je te helpen. Door een gratis account aan te maken krijg je niet alleen toegang tot deze tab ,akkoorden & tabs van Edelweiss maar kun je ook onbeperkt meespelen met een van de meer dan 25.000 andere tabs & chords in onze database.

Plaats opmerking

Beoordeel deze song

Rate UsDon’t love itNot greatGoodGreatLove itRate Us

Bedankt voor je beoordeling!