Oye como va

Gitaarliedjes, tabs & akkoorden (chords) Oye como va - santana

Songtype: Tab

arrow&v

Markeer als favoriet

Favoriet

Gemarkeerd als favoriet

Capo:

0

santana

santana

Song
Album
Categorie

Oye como va

Downloads
339
Niveau
3
abraxas

Geplaatst door
roeland
ProTabs-promo.jpg

Het originele nummer is gezongen en geschreven door

Oye Como Va door Santana
Getabt op Woensdag 15 aoril 2009
Getabt door OutlawSubset

Nummer 1691 in de top 2000

Oye Como Va

Oye como va mi ritmo
Bueno pa gozar mulata
Oye como va mi ritmo
Bueno pa gozar mulata

De intro gaat zo:
e|--------7-8-10--7----------l Dit stukje herhaal je 4x
B|-10--10-----------8h10--|
G|--------------------------------l
D|--------------------------------l
A|--------------------------------l
E|--------------------------------l

Dit wordt tijdens de intro gezongen Am en Dmaj zijn de akkoorden
Am DMaj
"Oye como va,

mi ritmo
Am DMaj
bueno pa' gozar

mulatta"...............(x2)

Dan komt een de eerste solo:

Solo 1:
e|-----------------------------------------------------------------|
B|-------8---8-7------------------------8---8-7--10--------|
G|-----9---9------7----5h7-7p5--------9---9-------------|
D|-7---------------------------7--7-----------------------------|
A|-----------------------------------------------------------------|
E|-----------------------------------------------------------------|

e|-----------------------------------------------------------------|
B|-------8---8-7----------------------8-10--8-7--10 b 13------|
G|-----9---9------7--5h7-7p5--------9------------(slow bend)--|
D|-7-------------------------7---10----------------------------------------|
A|-----------------------------------------------------------------------------|
E|-----------------------------------------------------------------------------|

e|-8-8-5-5-8-5--8--5----5------------8-8-5-5-8-5---5---------------|
B|--------------------7-------------------------/7-------------------------------|
G|------------------------5h7-7p5---------------------7b8-5--------------|
D|--------------------------------7-----------------------------------------------|
A|---------------------------------------------------------------------------------|
E|---------------------------------------------------------------------------------|

e|-8-8-5-5-8-5--8--5----5------------8-8-5-5-8-5---5~/12-----------|
B|--------------------7--------------------------7----------------------------------|
G|------------------------5h7-5--------------------------------------------------|
D|------------------------------7p6-----------------------------------------------|
A|-----------------------------------------------------------------------------------|
E|-----------------------------------------------------------------------------------|

e|-8-5--8-5--8-5--8-5--8-5--8-5--8-5--8-5--------------------------|
B|---------------------------------------------------------------------------------|
G|-----------------------------------------5h7---5h7-7p5------------------|
D|-------------------------------------------------------7------------------------|
A|---------------------------------------------------------------------------------|
E|---------------------------------------------------------------------------------|

e|------------------------------------------------------------------------------|
B|---------5---5-7---------------------5---5-7----------------------------|
G|-5-555-5---5-----------------5-555-5---5--------------------------|
D|----------------------4--5--6--7-------------------4--5--6--7---------|
A|------------------------------------------------------------------------------|
E|------------------------------------------------------------------------------|

e|------------------------------------------------------------------------------|
B|---------5---5-7-----------------------------------------------------------|
G|-5-555-5---5------------------------------------------------------------|
D|------------------4--5--6--7----------------------------------------------|
A|------------------------------------------------------------------------------|
E|------------------------------------------------------------------------------|
h= een hammer on
p= een pull off
/= een slide

Nu komt een keyboard solo en daar worden Am en Dmaj akkoorden gespeeld
Am:x77555
DMaj:xx0232

e|-5--5-5---5-5-5--5-5-5---5--5---5-5-5-5---5--5--|
B|-5--5-5---5-5-5--5-5-5---7--5---5-5-5-5---7--5--|
G|-5--5-5---5-5-5--5-5-5---7--5---5-5-5-5---7--5--|
D|-7--7-7---7-7-7--7-7-7---7--7---7-7-7-7---7--7--|
A|-7--7-7---7-7-7--7-7-7---5--7---7-7-7-7---5--7--|
E|-----------------------------------------------------------------|

Aan het begin van de tweede solo wordt er weer gezongen
Am DMaj
Oye como va,

mi ritmo
Am DMaj
bueno pa' gozar

mulatta"...............(x2)


Het tweede deel van de solo:
e|-5/12~~--8-8p5-5--8p5-8p5---5------------|-8-8-5-5-8p5---7-------------|
B|--------------------------8------------------------------|-------------7---------------------|
G|------------------------------5h7-7-7p5-----------|-----------------5/7--5h7p5---|
D|------------------------------5-------------------------|----------------------5-------------|
A|---------------------------------------------------------|-------------------------------------|
E|---------------------------------------------------------|-------------------------------------|


e|-8-8-5-5-8p5--8p5---5-------------|-8-8-5-5-8p5------|
B|------------------8------------------------|-------------5/7-------|
G|----------------------5h7-7-7p5------|-------------------------|
D|----------------------5--------------------|-------------------------|
A|--------------------------------------------|-------------------------|
E|--------------------------------------------|-------------------------|


e|-[15]b17r15b17---12-12h14-17---------|
B|------------------------------12h13----------------|
G|--------------------------------------------------------|
D|--------------------------------------------------------|
A|--------------------------------------------------------|
E|--------------------------------------------------------|


e|-------------------------------------------------------------------------------|
B|-6b8-8--6b8-8--6b8-8--6b8-8-6-8-------------5---------------|
G|--------------------------------7-9-7-5---5-7-5----7-7/9-9----------|
D|----------------------------------------7--------7---------------------------|
A|-------------------------------------------------------------------------------|
E|-------------------------------------------------------------------------------|


e|------------------------------------------|
B|------------------------------------------|
G|-5-5-5-----5-5-----------------------|
D|-5-5-5--7--5-5--5/7-5------------|
A|----------------------7-5---5----------|
E|--------------------------8---8---------|


e|-----------------------------------------|
B|----------------5-7--7--5-5-5------|
G|-5\--7--5-5-----5-7--7--5-5-5--|
D|-5\--7--5-5--7--5-7--7--5-5-5--|
A|-------------7---------------------------|
E|------------------------------------------|


e|-8p5-8p5-8p5--12\-8p5-10p5-8p5-5h8-8p5--8p5-8p5--8p5-98p5--8-8--8p5-8p5-8p5--|
B|--------------------------------------------------------------------------------------------------------------------------------|
G|-------------------------------------------------------------------------------------------------------------------------------|
D|-------------------------------------------------------------------------------------------------------------------------------|
A|-------------------------------------------------------------------------------------------------------------------------------|
E|-------------------------------------------------------------------------------------------------------------------------------|

"...ooh..."
e|-5--5-5---5-5-5--5-5-5---5--5---5-5-5-5---5--5--------------5\--|
B|-5--5-5---5-5-5--5-5-5---7--5---5-5-5-5---7--5--------------5\--|
G|-5--5-5---5-5-5--5-5-5---7--5---5-5-5-5---7--5--------------5\--|
D|-7--7-7---7-7-7--7-7-7---7--7---7-7-7-7---7--7--------------7\--|
A|-7--7-7---7-7-7--7-7-7---5--7---7-7-7-7---5--7--------------7\--|
E|----------------------------------------------------------------------------------|

Dit is het einde van het liedje.
Het liedje is erg moeilijk maar hopelijk hebben jullie er wat aan.

Mazzel,
Roeland







ProTabs promo.jpg

Onbeperkt en gratis toegang tot alle 25.000
Tabs & Chords en direct meespelen met

Artiest Liedje

...

Gitaarakkoorden santana - Oye como va

Dankzij de bladmuziek op deze pagina wordt het een stuk makkelijker om met de gitaar mee te spelen met Oye como va van santana De ProTabs van Gitaartabs worden door onze professionele gitaardocenten samengesteld. De tabs en chords zijn door leden zelf geplaatst. Deze undefined van santana met Oye como va is voor je geschreven door roeland

Tabs & Chords van santana - Oye como va

Bij de ProTabs delen we niet alleen de tablatuur maar ook de speelwijze van Oye como va Met een beetje gitaar ervaring moet je dit gitaarliedje zeker kunnen spelen, maar als het niet lukt zijn we er altijd om je te helpen. Door een gratis account aan te maken krijg je niet alleen toegang tot deze tab ,akkoorden & tabs van Oye como va maar kun je ook onbeperkt meespelen met een van de meer dan 25.000 andere tabs & chords in onze database.

Plaats opmerking

Verstuur

Beoordeel deze song

Rate UsDon’t love itNot greatGoodGreatLove itRate Us

Bedankt voor je beoordeling!