Dio

Gitaarliedjes, tabs & akkoorden (chords) Dio - tenacious d

Songtype: Tab

arrow&v

Markeer als favoriet

Favoriet

Gemarkeerd als favoriet

Capo:

0

tenacious d

tenacious d

Song
Album
Categorie

Dio

Downloads
99
Niveau
3
Geplaatst door
gitaartabs
ProTabs-promo.jpg

e|----3----------------3p2--------0h2---------|
B|----2-----------------------3--------------------|
G|---3---------------------------2-----------------|
D|---------------------------------------------------|
A|---------------------------------------------------|
E|---------------------------------------------------|

e|-----0-------------|
B|-----0-------------|
G|-----0------------|
D|------2------------|
A|------2------------|
E|------0------------|

e|----3----------------3p2--------0h2---------|
B|----2-----------------------3--------------------|
G|---3---------------------------2-----------------|
D|---------------------------------------------------|
A|---------------------------------------------------|
E|---------------------------------------------------|

e|-----3------------3-|
B|-----3------------3-|
G|-----0------------0-|
D|------2-----------0-|
A|------3-----------2-|
E|------0-----------3-|


e|----3-------------------------|
B|----2-------------------------|
G|---3--------------------------|
D|-------------------------------|
A|-------------------------------|
E|-------------------------------|

e|-----3------------3-|
B|-----3------------3-|
G|-----0------------0-|
D|------2-----------0-|
A|------3-----------2-|
E|------0-----------3-|

e|----3--------------3-----------|
B|----2-------------3------------|
G|---3--------------0------------|
D|-------------------2------------|
A|-------------------3------------|
E|-------------------0------------|

e|-------3-|
B|-------3-|
G|-------0-|
D|-------0-|
A|-------2-|
E|-------3-|

e|-----0----------3---|
B|-----0----------2---|
G|-----0----------3--|
D|------2-------------|
A|------2-------------|
E|------0-------------|

e|-----0-------------|
B|-----0-------------|
G|-----0------------|
D|------2------------|
A|------2------------|
E|------0------------|

e|----3--------------3--------0---|
B|----2-------------3--------0----|
G|---3--------------0--------0----|
D|-------------------2--------2----|
A|-------------------3---------2---|
E|-------------------0---------0---|

e|----3--------------3--------0---|
B|----2-------------3--------0----|
G|---3--------------0--------0----|
D|-------------------2--------2----|
A|-------------------3---------2---|
E|-------------------0---------0---|

e|----3--------------3--------0---3-----------|
B|----2-------------3--------0----2-----------|
G|---3--------------0--------0----3-----------|
D|-------------------2--------2-----------------|
A|-------------------3---------2----------------|
E|-------------------0---------0----------------|

e|----3--------------3--------0---|
B|----2-------------3--------0----|
G|---3--------------0--------0----|
D|-------------------2--------2----|
A|-------------------3---------2---|
E|-------------------0---------0---|

e|-13>15--10-----------------------------------------------------------------------------------------|
B|-------------------13--10--13/15--13------------------------------------------------------------|
G|------------------------------------------------13p12p10--12--10~----------------------------|
D|--------------------------------------------------------------------------------12----------12--------|
A|------------------------------------------------------------------------------------10h11------------|
E|----------------------------------------------------------------------------------------------------10--|

e|-----------------------------------------------------------------------------------------------------x
B|----------------------------------------------------------------------------------------------------7
G|----------------------------------------------------------------------------------------------------7
D|-----------------------------------------------------------------------------------------------------7
A|--------------------------------------------------------12-10-9-7-10-9-8-6-8-7-5-3-5-5
E|10p8-8h10-8h10-8h10-8h10-10-10------------------------------------------------x

tekst
Dio has rocked for a long, long time,
Now it's time for him to pass the torch.
He has songs of wildebeests and angels,
He has soared on the wings of a demon.

It's time to pass the torch,
You're too old to rock, no more rockin' for you.
We're takin' you to a home,
But we will sing a song about you.

And we will make sure that you're very well taken care of.
You'll tell us secrets that you've learned. Raow!
Your sauce will mix with ours,
And we'll make a good goulash baby.
Dio, time to go!
You must give your cape and scepter to me.
And a smaller one for KG.
Go! Go! Dio! Dio!

ProTabs promo.jpg

Onbeperkt en gratis toegang tot alle 25.000
Tabs & Chords en direct meespelen met

Artiest Liedje

...

Gitaarakkoorden tenacious d - Dio

Dankzij de bladmuziek op deze pagina wordt het een stuk makkelijker om met de gitaar mee te spelen met Dio van tenacious d De ProTabs van Gitaartabs worden door onze professionele gitaardocenten samengesteld. De tabs en chords zijn door leden zelf geplaatst. Deze undefined van tenacious d met Dio is voor je geschreven door gitaartabs

Tabs & Chords van tenacious d - Dio

Bij de ProTabs delen we niet alleen de tablatuur maar ook de speelwijze van Dio Met een beetje gitaar ervaring moet je dit gitaarliedje zeker kunnen spelen, maar als het niet lukt zijn we er altijd om je te helpen. Door een gratis account aan te maken krijg je niet alleen toegang tot deze tab ,akkoorden & tabs van Dio maar kun je ook onbeperkt meespelen met een van de meer dan 25.000 andere tabs & chords in onze database.

Plaats opmerking

Beoordeel deze song

Rate UsDon’t love itNot greatGoodGreatLove itRate Us

Bedankt voor je beoordeling!