• Streaming gitaar liedjes spelen
  • Leer gitaar spelen & gitaarlessen
  • 75.000 leden
Knockin' on Heaven's Door 
Guns N' Roses 
Use your illusion II 

LET OP! halve stap naar beneden stemmen.

fill 2 intro en verses
  G5            D                C 
|-3---3--------------2-0-------|-----------------0--------------------| 
|-3-----3---3------3-----3---3-|----------1--------------1------------| 
|-0-------0------2---------2---|-0------0---0----------0---0-0------0-| 
|-0------------0---------------|-0h2----------2------2-------0h2------| 
|------------------------------|------3---------------------------3---| 
|-3----------------------------|--------------------------------------| 

fill 1 alleen in de verses 
  G5              D                  Am 
|-3--------------2-------2-0-------|-0-------------0----------------------| 
|-3---3-------3--3-------3-------0-|-1----0h1-------------1---------------| 
|-0---0-----0----2----2-------2----|-2--2-----2---------2---2------0---0--| 
|-0---0-----0----0----0------------|-2----------2-----2-------0h2----2----| 
|----------------------------------|-0------------------------------------| 
|-3--------------------------------|--------------------------------------| 




Verse 1 (met fill 1)
G5         D               Am 
Mamma take this badge from me 

        (met fill 2) 
G5         D         C 
I can't use it anymore 

        (met fill 1) 
G5                D             Am 
It's getting dark, too dark to see 

        (met fill 2) 
G5             D                       C 
Feels like I'm knockin' on heaven's door 



Chorus: 
G5            D5                     C5 
Knock, knock, knockin' on heaven's door, 
C5 
Hey, hey, hey, hey, yeah 
G5            D5                     C5 
Knock, knock, knockin' on heaven's door, 
C5 
(no lyrics) 
G5                 D5                     C5 
Ooh, knock, knock, knockin' on heaven's door 
C5 
Ooh yeah 
G5            D5                     C5 
Knock, knock, knockin' on heaven's door 
C5 
Hey, hey, hey, hey, yeah 

 Solo 1: (akkoorden in solo : G5 D C) 
|----------------------------------------------------------| 
|--------------------15fb----------------------------------| 
|-12-14fb-14p12-14---------14-12-12~~~----------------12---| 
|------------------------------------------13/14-----------| 
|----------------------------------------------------------| 
|----------------------------------------------------------| 


|--------------------------------------------------------15----| 
|-15/17--15---13p12-13/15--13p12---13p12-----------12-13----13-| 
|--------------------------------------------------------------| 
|-----------------------------------------14~~~----------------| 
|--------------------------------------------------------------| 
|--------------------------------------------------------------| 


|--------------15-17fb--17--17fb--17fb--15----20fb-
De rest van dit nummer alleen voor Gitaartabs leden! Maak gratis Gitaartabs account aan . 
Gitaar Tabs

Download, print en speel de Tab ♪ Guns N Roses - Knocking On Heavens Door

Meld je aan en print, download of speel binnen 15 sec mee Tab ♫ Guns N Roses - Knocking On Heavens Door.
Reeds 70.000 gitaristen zijn je voorgegaan.

Gratis Aanmelden Gitaartabs