• Streaming gitaar liedjes spelen
  • Leer gitaar spelen & gitaarlessen
  • 75.000 leden

Gitaarles: 2.3 Tablatuur notatie - Bends (vb 7b9r7)

2.3 Gitaar Bends




Een bend is het opdrukken (of soms het omlaagtrekken) van een snaar, zodat de toonhoogte van die snaar omhoog gaat. Wanneer een bend gespeeld moet worden, dan moet je natuurlijk weten hoeveel de toon precies omhoog moet. Dit wordt aangegeven met het schijven van een cijfer achter de b. Bijvoorbeeld:
E---------------------------------------------------------------- 
B------7b9-------------------------------------------------------
G----------------------------------------------------------------
D----------------------------------------------------------------
A----------------------------------------------------------------
E----------------------------------------------------------------
Hier staat: "Sla de B snaar aan op de 7e positie. Druk de snaar op, zodat de toonhoogte twee halve tonen hoger wordt. Hiermee klinkt de toon uiteindelijk alsof deze op de 9e positie gespeeld wordt". (Soms wordt het getal achter de b ook wel tussen haakjes opgescheven, als ---7b(9)---).

Nog een voorbeeld:
E---------------------------------------------------------------- 
B------7b9--9r7--------------------------------------------------
G----------------------------------------------------------------
D----------------------------------------------------------------
A----------------------------------------------------------------
E----------------------------------------------------------------

Hier staat: "Sla de B snaar aan op de 7e positie en buig deze een hele toon omhoog. Sla de snaar opnieuw aan, terwijl deze nog steeds opgedrukt is. Laat de snaar hierna weer terugkeren naar de beginpositie, zodat de toon zijn normale toonhoogte weer bereikt".

Soms wordt er ook een pre-bend gebruikt. Hierbij wordt de snaar opgedrukt voordat deze aangeslagen wordt. Na het aanslaan van de snaar wordt deze teruggebracht naar de beginpositie. Pre-bends worden normaal gesproken als volgt opgeschreven:

E---------------------------------------------------------------- 
B------(7)b9r7---------------------------------------------------
G----------------------------------------------------------------
D----------------------------------------------------------------
A----------------------------------------------------------------
E----------------------------------------------------------------

Hier staat: "Zet je vinger op de B snaar op de 7e positie en druk deze een hele toon omhoog (zonder de snaar aan te slaan). Sla nu de snaar aan en laat de snaar terugkeren naar de beginpostitie".

Soms zullen er ook bends gespeeld moeten worden die bijvoorbeeld maar een kwart toon omhoog hoeven. In dat geval zou het er een beetje raar uitzien om het in TAB als volgt op te schrijven:

B--------7b7.5--------

Daarom wordt het als volgt opgeschreven:

bend up 1/4 tone
E---------------------------------------------------------------- 
B------7b--------------------------------------------------------
G----------------------------------------------------------------
D----------------------------------------------------------------
A----------------------------------------------------------------
E----------------------------------------------------------------
Dus de instructie over hoeveel de noot precies opgedrukt moet worden, wordt boven de noot geschreven.


Geschreven door: Howard Wright : Howard@jmdl.com
Vertaald door: Maurice Makaay: maurice@gitaar.net

Video uitleg door: JanH  - gitaartabs.nl

Claim nu je gratis 30 dagen gratis online gitaarles

Gitaarles vragen, suggesties en opmerkingen

Lorenzo

Lorenzo 2008-06-15 14:06:52 / Reply

dit lukt me niet echt...
De toon verandert bijna niet als ik men snaar omhoog duw. =(