U being u

Gitaarliedjes, tabs & akkoorden (chords) U being u - anouk

Songtype: Chords

arrow&v

Markeer als favoriet

Favoriet

Gemarkeerd als favoriet

Capo:

0

anouk

anouk

Song
Album
Categorie

U being u

urban solitude

Downloads
332
Niveau
3
Geplaatst door
gitaartabs
ProTabs-promo.jpg

Riff1
e---------------------------------
B---------------------------------
G----------------------------2----
D-----2-----2--2-----1-----0------
A---4------4--4----4-----2--------
E-2------2---2---2----------------
F#7(no3) F#6 D/B

Riff1 (fuzz)
Riff1

F#7(no3) F#6 D/B

F#7(no3)
I_ don't exist for you
F#6 D/B
You made that crystal clear
F#7(no3)
Your sweetest thing for 7 years_
F#6 D/B
What did I do to deserve this

F#7(no3)
Don't think you own my life_
F#6 D/B
I've still got my pride
F#7(no3)
Tryin' so hard to forget
F#6 D/B
I cannot help but hear your voice

Riff2a
e----------------
B----------------
G----------------
D-4-4-4-4-4-4-4--
A-4-4-4-4-4-4-4--
E-0-2-2-0-2-0-2--

[Pre-chorus]
F#5 (Riff2a) F#5
This is love, just trust me baby Other girls mean nothing to me
D5 B5
Why don't you keep your big mouth shut
F#5 F#5
And all the bridges that you burn Come back one day to haunt you
D5 B5
It's just a matter of time

[Chorus]
F#m
Baby, don't get me wrong
D Bm
If I'm not there to catch your fall
F#m
Did I try for too long
D Bm F#7(no3) F#6 D/B
Am I to blame for you being you

F#7(no3)
Save those tears for someone else
F#6 D/B
Your trouble's only just begun
F#7(no3)
Hands off my sunshine leave it alone
F#6 D/B
Before I go commit a crime_______ no

[Pre-chorus]
F#5 F#5
I'm gonna show you what you taught me No respect, no_ mercy__
D5 B5
Till you fall down on your knees for me
F#5 F#5
And all the bridges that you burn Come back one day to haunt you
D5 B5
It's just a matter of time

[Chorus]
F#m
Baby, don't get me wrong
D Bm
If I'm not there to catch your fall
F#m
Did I try for too long
D Bm
Am I to blame for you being you

[Drums]
This is love, just trust me baby
This is love, just trust me baby

Riff2a
e----------------
B----------------
G----------------
D-4-4-4-4-4-4-4--
A-4-4-4-4-4-4-4--
E-0-2-2-0-2-0-2--

Riff2b
e-----------------
B-----------------
G-----------------
D---4---4---4---4-
A---4---4---4---4-
E-0h2-0h2-0h2-0h2-

Riff2a Riff2a Riff2b Riff2b

[Chorus]
F#m
Baby, don't get me wrong
D Bm
If I'm not there to catch your fall
F#m
Did I try for too long
D Bm
Am I to blame for you being you

[Solo]
G#m E C#m (&Riff3a)
U being U yeah

Riff3a
e-------------------------------------------------
B-4-4-4-4-4-4-4-4-4-4-4-4-4-4-4-4-4-4-4-4-4-4-4-4-
G-------------------------------------------------

G#m E C#m (&Riff3b)
U being U yeah__

Riff3b
e-------------------------------------------------
B-4-4-4-4-7-7-7-7-9-9-9-9-11-11-11-11-12-12-12-12-
G-------------------------------------------------

G#m E C#m (&Riff3c)
(This is love, just trust me baby Other girls mean nothing to me)
(And all the bridges that you burn Come back one day to haunt you)

Riff3c
e-------------------------------------------------
B-12-12-12-12-14-14-14-14-16-16-16-16-16----------
G-------------------------------------------------

G#m E C#m (&Riff3d)
(I'm gonna show you what you taught me No respect, no mercy)
(And all the bridges that you burn Come back one day to haunt you)

Riff3c
e-16-16-16-16-18-18-18-18-19-19-19-19-21-21-21-21-
B-------------------------------------------------
G-------------------------------------------------

Riff4

Riff4
e---------------
B---------------
G---------------
D-4-6-6-4-6-4-6-
A-4-6-6-4-6-4-6-
E-2/4-4\2/4\2/4-
F#G# F#G#F#G#

Chords:
F#7(no3) 242xxx
F#6 241xxx
D/B x202xx
F#5 244xxx
D5 x577xx
B5 x244xx
F#m 244222
D xx0232
Bm x24432
G#m 466444
E 022100
C#m x46654

ProTabs promo.jpg

Onbeperkt en gratis toegang tot alle 25.000
Tabs & Chords en direct meespelen met

Artiest Liedje

...

Gitaarakkoorden anouk - U being u

Dankzij de bladmuziek op deze pagina wordt het een stuk makkelijker om met de gitaar mee te spelen met U being u van anouk De ProTabs van Gitaartabs worden door onze professionele gitaardocenten samengesteld. De tabs en chords zijn door leden zelf geplaatst. Deze undefined van anouk met U being u is voor je geschreven door gitaartabs

Tabs & Chords van anouk - U being u

Bij de ProTabs delen we niet alleen de tablatuur maar ook de speelwijze van U being u Met een beetje gitaar ervaring moet je dit gitaarliedje zeker kunnen spelen, maar als het niet lukt zijn we er altijd om je te helpen. Door een gratis account aan te maken krijg je niet alleen toegang tot deze chords ,akkoorden & tabs van U being u maar kun je ook onbeperkt meespelen met een van de meer dan 25.000 andere tabs & chords in onze database.

Plaats opmerking

Beoordeel deze song

Rate UsDon’t love itNot greatGoodGreatLove itRate Us

Bedankt voor je beoordeling!