Just like heaven

Gitaarliedjes, tabs & akkoorden (chords) Just like heaven - katie melua

Songtype: Chords

arrow&v

Markeer als favoriet

Favoriet

Gemarkeerd als favoriet

Capo:

0

katie melua

katie melua

Song
Album
Categorie

Just like heaven

Downloads
722
Niveau
2

Geplaatst door
rick
ProTabs-promo.jpg

A = A = X-0-2-2-2-0
E = E = 0-2-2-1-0-0
Bm = B Mineur = X-2-4-4-3-2
D = D = X-X-0-2-3-2
F#m = Fis Mineur = 2-4-4-2-2-2
G = G = 3-2-0-0-3-3


Tokkelpatroon:
“A” “E” “Bm” “D”
e|-----------------|-----------------|-----------------|-------2-----2---|
B|-------2-----2---|-------0-----0---|-------3-----3---|-----3---3-----3-|
G|-----2---2-----2-|-----1---1-----1-|-----4---4-----4-|---2-------2-----|
D|---2-------2-----|---2-------2-----|---4-------4-----|-0---------------|
A|-0---------------|-----------------|-2---------------|-----------------|
E|-----------------|-0---------------|-----------------|-----------------|

--- - Fade out
h - Hammer on
p - Pull of
/ - Slide In
- Slide out

Maat: 4/4



Intro: A | E | Bm | D |

“A” “E” “Bm” “D”
e|-9-9-9-------|------------|-------------|----------------------|
B|-------12-10-|-9-9-9------|-------------|----------------------|
G|-------------|-------11-9-|-------------|-9--------------------|
D|-------------|------------|-12-12-11-12-|---12-11-9-11-12-11-9-|
A|-------------|------------|-------------|----------------------|
E|-------------|------------|-------------|----------------------|
“A” “E” “Bm” “D”
e|--------------------|------------|-9h10p9------------12-12-|---------9-10-|
B|--------------------|------------|--------12-10-9-10-------|-10---12------|
G|--------------------|------------|-------------------------|--------------|
D|---------------/9-9-|------------|-------------------------|--------------|
A|-11-11-11-9-11------|------------|-------------------------|--------------|
E|--------------------|------------|-------------------------|--------------|
“A” “E” “Bm” “D” “A”
e|-9------|--------------------|--------------------|-----------------------------------|
B|---10---|--10-9--------------|--------------------|-----------------------------------|
G|------9-|-------11-9---------|--------------------|-----------------------------------|
D|--------|------------12-11-9-|—11/1211-9-12-9-12-|-11/1211-11/1211-9-11-9----------|
A|--------|--------------------|--------------------|--------------------------12-11-12-|
E|--------|--------------------|--------------------|-----------------------------------|



A E
Show me how you do that trick
Bm D
The one that makes me scream he said
A E
The one that makes me laugh he said
Bm D
And threw his arms around my neck

Show me how you do it
And I promise you I promise that
I'll run away with you
I'll run away with you


“A” “E” “Bm” “D”
e|-9-9-9-------|------------|-------------|----------------------|
B|-------12-10-|-9-9-9------|-------------|----------------------|
G|-------------|-------11-9-|-------------|-9--------------------|
D|-------------|------------|-12-12-11-12-|---12-11-9-11-12-11-9-|
A|-------------|------------|-------------|----------------------|
E|-------------|------------|-------------|----------------------|
“A” “E” “Bm” “D”
e|-10-9----9-10-12-|-----------------|---------|-----------------|
B|------12---------|-/12---9h10p9----|---------|-----------------|
G|-----------------|--------------11-|-9-11-11-|-9---------------|
D|-----------------|-----------------|---------|---12-11-9-------|
A|-----------------|-----------------|---------|-----------12-12-|
E|-----------------|-----------------|---------|-----------------|

Spinning on that dizzy edge
I kissed his face and kissed his head
And dreamed of all the different ways
I had To make him glow

Why are you so far away? he said
Why won't you ever know that
I'm in love with you
That I'm in love with you

F#m G
You, soft and only
F#m G
You,lost and lonely
F#m G D
You, strange as angels

D
Dancing in the deepest oceans
D
Twisting in the water
A
You're just like a dream
E Bm D
You're just like a dream

“A” “E” “Bm” “D”
e|-9-9-9----------|---------------|-------------|-----------------|
B|-------12-12-10-|-9-9-9---------|-------------|-----------------|
G|----------------|-------11-11-9-|-------------|-----------------|
D|----------------|---------------|-12-12-11-12-|-9-11-12-12-119-|
A|----------------|---------------|-------------|-----------------|
E|----------------|---------------|-------------|-----------------|
“A” “E” “Bm” “D”
e|----------------|---------------|----9-10-10-|--------------------------|
B|----------------|-------9--9-10-|-12---------|--------------------------|
G|--------------9-|-11-11---------|------------|--------------------------|
D|-11-11-12--12---|---------------|------------|-11h12p11-9-12-12-11-9----|
A|----------------|---------------|------------|-----------------------12-|
E|----------------|---------------|------------|--------------------------|
“A” “E” “Bm” “D”
e|------------|---------|------------9-10-9----|-12-10-9-------12-12-12-|
B|------------|-/9-10-9-|----9-10-12--------12-|---------12-10----------|
G|------------|---------|-11-------------------|------------------------|
D|-9/11-11-11-|---------|----------------------|------------------------|
A|------------|---------|----------------------|------------------------|
E|------------|---------|----------------------|------------------------|

A E
Daylight licked me into shape
Bm D
I must have been asleep for days
A E
And moving lips to breathe his name
Bm D
I opened up my eyes

And found myself alone alone
Alone above a raging sea
That stole the only boy I loved
And drowned him deep inside of me

F#m G
You, soft and only
F#m G
You,lost and lonely
F#m G D
You, just like heaven

F#m G
You, soft and only
F#m G
You, lost and lonely
F#m G D---
You, just like heaven

ProTabs promo.jpg

Onbeperkt en gratis toegang tot alle 25.000
Tabs & Chords en direct meespelen met

Artiest Liedje

...

Gitaarakkoorden katie melua - Just like heaven

Dankzij de bladmuziek op deze pagina wordt het een stuk makkelijker om met de gitaar mee te spelen met Just like heaven van katie melua De ProTabs van Gitaartabs worden door onze professionele gitaardocenten samengesteld. De tabs en chords zijn door leden zelf geplaatst. Deze undefined van katie melua met Just like heaven is voor je geschreven door rick

Tabs & Chords van katie melua - Just like heaven

Bij de ProTabs delen we niet alleen de tablatuur maar ook de speelwijze van Just like heaven Met een beetje gitaar ervaring moet je dit gitaarliedje zeker kunnen spelen, maar als het niet lukt zijn we er altijd om je te helpen. Door een gratis account aan te maken krijg je niet alleen toegang tot deze chords ,akkoorden & tabs van Just like heaven maar kun je ook onbeperkt meespelen met een van de meer dan 25.000 andere tabs & chords in onze database.

Plaats opmerking

Verstuur

Beoordeel deze song

Rate UsDon’t love itNot greatGoodGreatLove itRate Us

Bedankt voor je beoordeling!