I agree

Gitaarliedjes, tabs & akkoorden (chords) I agree - krezip

Songtype: Chords

arrow&v

Markeer als favoriet

Favoriet

Gemarkeerd als favoriet

Capo:

0

krezip

krezip

Song
Album
Categorie

I agree

Downloads
1672
Niveau
1

Geplaatst door
gitaartabs
ProTabs-promo.jpg

I agree

(acoustic)


I) (speel met variaties)

Dm Asus2 Bb Cadd9
e -------1-|-0-------|-------1-|---------
B -----3---|-0-------|-----3---|-------3-
G ---2-----|-2-------|---3-----|-----0---
D -0-------|-2-------|-3-------|---2-----
A ---------|-0-------|---------|-3-------
E ---------|---------|---------|---------

II) (ritme bij benadering)

Dm A Bb C7
e -1---1--1-1-|-0--0-0-0-2---0-0-|-1---1--1-1-|-0--0-0-0-0---0-0-
B -3---3--3-3-|-2--2-2-2-2---2-2-|-3---3--3-3-|-1--1-1-1-1---1-1-
G -2---2--2-2-|-2--2-2-2-2---2-2-|-3---3--3-3-|-3--3-3-3-3---3-3-
D -0---0--0-0-|-2--2-2-0h2---2-2-|-3---3--3-3-|-2--2-2-0h2---2-2-
A ------------|-0--0-0-0-0---0-0-|------------|-3--3-3-3-3---3-3-
E ------------|------------------|------------|------------------

III) Bb C Dsus2 Dsus2 (3x)
C C Bb Bb
Dm A Bb C
C C C

---------------------------

I)

I)
big eyes that stared at nothing in the dark
but what they're seeing, i don't know
can't feel it, it's too far away
can't see it, much too deep for me

II)
i ask a lot i know
but you heard a lot i saw, yeah
the things that made you scream
but you don't know where it's from, yeah

I)
dreaming, 'cause that's the way to escape
but where to, hey, you don't know
can't feel it, it's too far away
can't see it, much too deep for me

II)
i ask a lot i know
but you heard a lot i saw, yeah
the things that made you scream
but you don't know where it's from, yeah

III)
no more lies i said
i wanna hear it all
like what did it do to you
but all she said was "i agree
i agree with you", oh

II)
i ask a lot i know
but you heard a lot i saw, yeah
the things that made you scream
but you don't know where it's from

ProTabs promo.jpg

Onbeperkt en gratis toegang tot alle 25.000
Tabs & Chords en direct meespelen met

Artiest Liedje

...

Gitaarakkoorden krezip - I agree

Dankzij de bladmuziek op deze pagina wordt het een stuk makkelijker om met de gitaar mee te spelen met I agree van krezip De ProTabs van Gitaartabs worden door onze professionele gitaardocenten samengesteld. De tabs en chords zijn door leden zelf geplaatst. Deze undefined van krezip met I agree is voor je geschreven door gitaartabs

Tabs & Chords van krezip - I agree

Bij de ProTabs delen we niet alleen de tablatuur maar ook de speelwijze van I agree Met een beetje gitaar ervaring moet je dit gitaarliedje zeker kunnen spelen, maar als het niet lukt zijn we er altijd om je te helpen. Door een gratis account aan te maken krijg je niet alleen toegang tot deze chords ,akkoorden & tabs van I agree maar kun je ook onbeperkt meespelen met een van de meer dan 25.000 andere tabs & chords in onze database.

Plaats opmerking

Verstuur

Beoordeel deze song

Rate UsDon’t love itNot greatGoodGreatLove itRate Us

Bedankt voor je beoordeling!