Iron man

Gitaarliedjes, tabs & akkoorden (chords) Iron man - black sabbath

Songtype: Tab

arrow&v

Markeer als favoriet

Favoriet

Gemarkeerd als favoriet

Capo:

0

black sabbath

black sabbath

Song
Album
Categorie

Iron man

Downloads
327
Niveau
2

Geplaatst door
sinn
ProTabs-promo.jpg

Intro
e|-------------------------------------------|
B|-------------------------------------------|
G|-4/7--7/9-9---12\-12\-12\-12\7---7/9-9-----|
D|-4/7--7/9-9---12\-12\-12\-12\7---7/9-9-----|
A|-2/5--5/7-7---10\-10\-10\-10\5---5/7-7-----|
E|-------------------------------------------|


e|---------------------------------|
B|---------------------------------|
G|---------------------------------|
D|----------5h4-5h4 5h4------------|
A|-2-5-5h7-7-------------5/7-7\----|
E|---------------------------------|

1
e|---------------------------------|
B|---------------------------------|
G|---------------------------------|
D|---------------------------------|
A|-----5---------------------------|
E|-7-7---7-6-5-5-5-0h4-5-5-6-7-7---|

Brug
e|-----------------------------------------------|
B|-----------------------------------------------|
G|----------------------2-3-4---------------2-3-4|
D|9--7--4-4-----2-2-3-4-------4-4-----22-3-4-----|
A|7--5--2-2-2-5---------------2-2-2-5------------|
E|-----------------------------------------------|

2
e|-----------------------------------------------|
B|-----------------------------------------------|
G|-6-4----------------6-4------------------------|
D|-----6-5-4-2------------6-5-4-2----------------|
A|-------------2-2h4-4------------2--2h4 4-------|
E|-----------------------------------------------|

Tekst:
Has he lost his mind?
Can he see or is he blind?
Can he walk at all,
Or if he moves will he fall?
Is he alive or dead?
Has he thoughts within his head?
Well just pass him there
Why should we even care?

He was turned to steel
In the great magnetic field
Where he traveled time
For the future of mankind

Nobody wants him
He just stares at the world
Planning his vengeance
That he will soon unfold

Now the time is here
For iron man to spread fear
Vengeance from the grave
Kills the people he once saved

Nobody wants him
They just turn their heads
Nobody helps him
Now he has his revenge

Heavy boots of lead
Fills his victims full of dread
Running as fast as they can
Iron man lives again!

ProTabs promo.jpg

Onbeperkt en gratis toegang tot alle 25.000
Tabs & Chords en direct meespelen met

Artiest Liedje

...

Gitaarakkoorden black sabbath - Iron man

Dankzij de bladmuziek op deze pagina wordt het een stuk makkelijker om met de gitaar mee te spelen met Iron man van black sabbath De ProTabs van Gitaartabs worden door onze professionele gitaardocenten samengesteld. De tabs en chords zijn door leden zelf geplaatst. Deze undefined van black sabbath met Iron man is voor je geschreven door sinn

Tabs & Chords van black sabbath - Iron man

Bij de ProTabs delen we niet alleen de tablatuur maar ook de speelwijze van Iron man Met een beetje gitaar ervaring moet je dit gitaarliedje zeker kunnen spelen, maar als het niet lukt zijn we er altijd om je te helpen. Door een gratis account aan te maken krijg je niet alleen toegang tot deze tab ,akkoorden & tabs van Iron man maar kun je ook onbeperkt meespelen met een van de meer dan 25.000 andere tabs & chords in onze database.

Plaats opmerking

Verstuur

Beoordeel deze song

Rate UsDon’t love itNot greatGoodGreatLove itRate Us

Bedankt voor je beoordeling!