Paranoid (easy version)

Gitaarliedjes, tabs & akkoorden (chords) Paranoid (easy version) - black sabbath

Songtype: Tab

arrow&v

Markeer als favoriet

Favoriet

Gemarkeerd als favoriet

Capo:

0

black sabbath

black sabbath

Song
Album
Categorie

Paranoid (easy version)

Downloads
563
Niveau
1
paranoid

Geplaatst door
gitaartabs
ProTabs-promo.jpg

Band: Black Sabbath
Album: Paranoid
Year: 1970
Song: Paranoid
Difficulity: easy

Intro
e|--------------------------------------|
B|--------------------------------------|
G|--------------------------------------|
D|-------------------12h14-------12h14--|
A|14---14—-14--12h14-------12h14--------|
E|12---12—-12---------------------------|

Chorus & Strophes
e|--------------------------------------------------|
B|--------------------------------------------------|
G|--------------------------------------------------|
D|--------------------------------------------------|
A|14-14-14-14-14-14-14-14-14-14-14-14-14-14-14-14---|
E|12-12-12-12-12-12-12-12-12-12-12-12-12-12-12-12---|
(16 notes)
e|--------------------------------------------------|
B|---------------------------------------12---------|
G|---------------------------------------12---------|
D|---------------------------12----------12---------|
A|12-12-12-12-12-12-12-12----10--12--14-------------|
E|10-10-10-10-10-10-10-10--------10--12-------------|
(8 notes)



You can play this in many other ways, but I found this way the easiest.

ProTabs promo.jpg

Onbeperkt en gratis toegang tot alle 25.000
Tabs & Chords en direct meespelen met

Artiest Liedje

...

Gitaarakkoorden black sabbath - Paranoid (easy version)

Dankzij de bladmuziek op deze pagina wordt het een stuk makkelijker om met de gitaar mee te spelen met Paranoid (easy version) van black sabbath De ProTabs van Gitaartabs worden door onze professionele gitaardocenten samengesteld. De tabs en chords zijn door leden zelf geplaatst. Deze undefined van black sabbath met Paranoid (easy version) is voor je geschreven door gitaartabs

Tabs & Chords van black sabbath - Paranoid (easy version)

Bij de ProTabs delen we niet alleen de tablatuur maar ook de speelwijze van Paranoid (easy version) Met een beetje gitaar ervaring moet je dit gitaarliedje zeker kunnen spelen, maar als het niet lukt zijn we er altijd om je te helpen. Door een gratis account aan te maken krijg je niet alleen toegang tot deze tab ,akkoorden & tabs van Paranoid (easy version) maar kun je ook onbeperkt meespelen met een van de meer dan 25.000 andere tabs & chords in onze database.

Plaats opmerking

Verstuur

Beoordeel deze song

Rate UsDon’t love itNot greatGoodGreatLove itRate Us

Bedankt voor je beoordeling!