Paranoid

Gitaarliedjes, tabs & akkoorden (chords) Paranoid - black sabbath

Songtype: Tab

arrow&v

Markeer als favoriet

Favoriet

Gemarkeerd als favoriet

Capo:

0

black sabbath

black sabbath

Song
Album
Categorie

Paranoid

Downloads
1260
Niveau
2
Geplaatst door
sinn
ProTabs-promo.jpg

Intro
E|---------------------|
B|---------------------|
G|-9-9-9----7h9---7h9--|
D|-9-9-9-7h9---7h9-----|
A|-7-7-7---------------|
E|---------------------|


E|----------------------------------------|
B|---------------------------7------------|
G|-9999999999999999-77777777-7-7-9--------|
D|-9999999999999999-77777777-5-7-9--------|
A|-7777777777777777-55555555---5-7--------|
E|----------------------------------------|

E|-------------------------------------------|
B|------------------------------7------------|
G|-999999999999----7h9-77777777-7-7-9--------|
D|-999999999999-7h9----77777777-5-7-9--------|
A|-777777777777--------55555555---5-7--------|
E|-------------------------------------------|

ProTabs promo.jpg

Onbeperkt en gratis toegang tot alle 25.000
Tabs & Chords en direct meespelen met

Artiest Liedje

...

Gitaarakkoorden black sabbath - Paranoid

Dankzij de bladmuziek op deze pagina wordt het een stuk makkelijker om met de gitaar mee te spelen met Paranoid van black sabbath De ProTabs van Gitaartabs worden door onze professionele gitaardocenten samengesteld. De tabs en chords zijn door leden zelf geplaatst. Deze undefined van black sabbath met Paranoid is voor je geschreven door sinn

Tabs & Chords van black sabbath - Paranoid

Bij de ProTabs delen we niet alleen de tablatuur maar ook de speelwijze van Paranoid Met een beetje gitaar ervaring moet je dit gitaarliedje zeker kunnen spelen, maar als het niet lukt zijn we er altijd om je te helpen. Door een gratis account aan te maken krijg je niet alleen toegang tot deze tab ,akkoorden & tabs van Paranoid maar kun je ook onbeperkt meespelen met een van de meer dan 25.000 andere tabs & chords in onze database.

Plaats opmerking

Beoordeel deze song

Rate UsDon’t love itNot greatGoodGreatLove itRate Us

Bedankt voor je beoordeling!