Blackwoods gold

Gitaarliedjes, tabs & akkoorden (chords) blackwoods gold - black stone cherry

Songtype: Tab

arrow&v

Markeer als favoriet

Favoriet

Gemarkeerd als favoriet

Capo:

0

black stone cherry

black stone cherry

Song
Album
Categorie

blackwoods gold

Downloads
1549
Niveau
1

Geplaatst door
gitaarbeun
ProTabs-promo.jpg

dit is mijn 1e tab dus het is voor mij een beetje moeilijk om hem helemaal te doen, daarom heb ik alleen het eerste gedeelte.




|---------------------|---------------------|
|---------------------|---------------------|
|---------------------|---------------------| dit 8 keer spelen
|---------------------|---------------------|
|---------------------|---------------------|
|-10-0-12-0-12-0-0-12-|-0-12-0-12-13-0-10-0-|



|-----------------|------------------|
|-----------------|------------------|
|-----------------|------------------|
|-----------------|------------------|
|-0-0-0---0-0---0-|-0---0-0---0-0----|
|-0-0-0---0-0---0-|-0---0-0---0-0----|



|-----------------|-----------------|
|-----------------|-----------------|
|-----------------|-----------------|
|-----------------|-----------------|
|-8-8-8---8-8---8-|-8---8-8---8-8---|


ik hoop dat hij zo goed is

ProTabs promo.jpg

Onbeperkt en gratis toegang tot alle 25.000
Tabs & Chords en direct meespelen met

Artiest Liedje

...

Gitaarakkoorden black stone cherry - blackwoods gold

Dankzij de bladmuziek op deze pagina wordt het een stuk makkelijker om met de gitaar mee te spelen met blackwoods gold van black stone cherry De ProTabs van Gitaartabs worden door onze professionele gitaardocenten samengesteld. De tabs en chords zijn door leden zelf geplaatst. Deze undefined van black stone cherry met blackwoods gold is voor je geschreven door gitaarbeun

Tabs & Chords van black stone cherry - blackwoods gold

Bij de ProTabs delen we niet alleen de tablatuur maar ook de speelwijze van blackwoods gold Met een beetje gitaar ervaring moet je dit gitaarliedje zeker kunnen spelen, maar als het niet lukt zijn we er altijd om je te helpen. Door een gratis account aan te maken krijg je niet alleen toegang tot deze tab ,akkoorden & tabs van blackwoods gold maar kun je ook onbeperkt meespelen met een van de meer dan 25.000 andere tabs & chords in onze database.

Plaats opmerking

Verstuur

Beoordeel deze song

Rate UsDon’t love itNot greatGoodGreatLove itRate Us

Bedankt voor je beoordeling!