Blooddrunk

Gitaarliedjes, tabs & akkoorden (chords) Blooddrunk - children of bodom

Songtype: Tab

arrow&v

Markeer als favoriet

Favoriet

Gemarkeerd als favoriet

Capo:

0

children of bodom

children of bodom

Song
Album
Categorie

Blooddrunk

Downloads
1386
Niveau
3

Geplaatst door
[b]lack[a]ngel
ProTabs-promo.jpg


Dit heerlijke nummer van CoB is in drop C tuning, ik zal er nog een videoles op geven op hoe je dit moet doen
Gitaar 1 = Gewoon een gitaar
Gitaar 2 = Een gitaar
Gitaar 3 = Keybord
Gitaar 4 = Keybord

Intro
Gtr I
|-------------------------------------|----------------------------------------|
|-------------------------------------|----------------------------------------|
|-------------------------------------|----------------------------------------|
|-------------------------------------|-------------------------------8--------|
|-------------------------------------|---------------------5---------6--------|
|-------------------------------------|---------------------5------------------|

Gtr III
|----13-10----12----15-13-10----12----|-----13-------12------------------------|
|----------10----13----------10----13-|--------13-10----13-15--13--------10-11-|
|-------------------------------------|---------------------------10-12--------|
|-12----------------------------------|-12-------------------------------------|
|-------------------------------------|----------------------------------------|
|-------------------------------------|----------------------------------------|


PM| PM|
|--------------------------------------|-----------------------------------------|
|--------------------------------------|-----------------------------------------|
|--------------------------------------|-----------------------------------------|
|--------------------------------------|--3------------------2-------------------|
|--5--------5--------------------------|--3------------------3-------------------|
|-----0--0-----0--0--------------------|--3------------------2-------------------|


|----13-10----12----15--13-10----12----|--------15----17-----------13----15------|
|----------10----13-----------10----13-|-18-----------------17-------------------|
|--------------------------------------|-----17----17----17-----17----17----17---|
|-12-----------------------------------|-----------------------------------------|
|--------------------------------------|-----------------------------------------|
|--------------------------------------|-----------------------------------------|


Er tussen door:)
||-----13-10----12----15-13-10----12----|----13-------12----------------------|
||o----------10----13----------10----13-|-------13-10----13-15-13-------10-11-|
||--------------------------------------|-------------------------10-12-------|
||--12----------------------------------|-12----------------------------------|
||o-------------------------------------|-------------------------------------|
||--------------------------------------|-------------------------------------|


||-----13-10----12----15-13-10----12----|----13-------12----------------------|
||o----------10----13----------10----13-|-------13-10----13-15-13-------10-11-|
||--------------------------------------|-------------------------10-12-------|
||--12----------------------------------|-12----------------------------------|
||o-------------------------------------|-------------------------------------|
||--------------------------------------|-------------------------------------|


Gtr II
||--------------------------------------|-------------------------------------|
||o-------------------------------------|-------------------------------------|
||--------------------------------------|-------------------------------------|
||---7--------7--------7--------5--5--5-|--7--------7-----------------8--8--8-|
||o--5--------5--------5--------3--3--3-|--5--------5--------5--5--5--6--6--6-|
||------0--0-----0--0-----0--0----------|-----0--0-----0--0--5--5--5----------|


|----13-10----12----15-13-10----12----|--------12----13-----------10----12--------||
|----------10----13----------10----13-|-15--13----13----13-13--------------------o||
|-------------------------------------|------------------------12----12----12-----||
|-12----------------------------------|-------------------------------------------||
|-------------------------------------|------------------------------------------o||
|-------------------------------------|-------------------------------------------||


|----13-10----12----15-13-10----12----|--------15----17-----------13----15--------||
|----------10----13----------10----13-|-18-----------------17--------------------o||
|-------------------------------------|-----17----17----17-----17----17----17-----||
|-12----------------------------------|-------------------------------------------||
|-------------------------------------|------------------------------------------o||
|-------------------------------------|-------------------------------------------||


|-------------------------------------|-------------------------------------------||
|-------------------------------------|------------------------------------------o||
|-------------------------------------|-------------------------------------------||
|--7--------7--------7--------5--5--5-|--3------------------2---------------------||
|--5--------5--------5--------3--3--3-|--3------------------3--------------------o||
|-----0--0-----0--0-----0--0----------|--3------------------2---------------------||


VoorCouplet
PM----| PM PM| PM----| PM PM
|---------------------------|----------------------------|
|---------------------------|------------------------6---|
|---------------------------|------------------7-------7-|
|-----------------------7---|--------------------7-6-----|
|-0-------3---4-----8-5---6-|-0-------3---3--------------|
|-0-0-0-0-3-0-4-0-0---------|-0-0-0-0-2-0-3-0------------|

Gtr II
PM----| PM PM----| PM
|---------------------------|----------------------------|
|---------------------------|----------------------------|
|---------------------------|----------------------------|
|---------------------------|----------------------------|
|-0-------3---4-------------|-0-------3---3--------------|
|-0-0-0-0-3-0-4-------------|-0-0-0-0-2-0-3--------------|


PM----| PM PM| PM----| PM PM PM
|----------------------------|------------------------------|
|----------------------------|------------------------------|
|----------------------------|------------------------------|
|------------------------7---|---------------------8-8-8----|
|-0-------3---4------8-5---6-|-0-------3---3-------6-6-6----|
|-0-0-0-0-3-0-4-0--0---------|-0-0-0-0-2-0-2-0-6-0----------|

PM----| PM PM----| PM PM PM
|----------------------------|------------------------------|
|----------------------------|------------------------------|
|----------------------------|------------------------------|
|----------------------------|---------------------8-8-8----|
|-0-------3---4--------------|-0-------3---3-------6-6-6----|
|-0-0-0-0-3-0-4--------------|-0-0-0-0-2-0-2-0-6-0----------|


PM----| PM PM| PM----| PM PM
|---------------------------|---------------------------|
|---------------------------|-----------------------6---|
|---------------------------|-----------------7-------7-|
|-----------------------7---|-------------------7-6-----|
|-0-------3---4-----8-5---6-|-0-------3---3-------------|
|-0-0-0-0-3-0-4-0-0---------|-0-0-0-0-2-0-3-0-----------|

PM----| PM PM| PM----| PM PM
|---------------------------|---------------------------|
|---------------------------|-----------------------6---|
|---------------------------|-----------------7-------7-|
|-----------------------7---|-------------------7-6-----|
|-0-------3---4-----8-5---6-|-0-------3---3-------------|
|-0-0-0-0-3-0-4-0-0---------|-0-0-0-0-2-0-3-0-----------|


PM----| PM PM| PM----| PM PM PM ~~~~
|---------------------------|-----------------------------|
|---------------------------|-----------------------------|
|---------------------------|----------------------[8]----|
|-----------------------7---|-----------------------------|
|-0-------3---4-----8-5---6-|-0-------3---3---------------|
|-0-0-0-0-3-0-4-0-0---------|-0-0-0-0-2-0-2-0-6-0---------|

PM----| PM PM| PM----| PM PM PM ~~~~
|---------------------------|-----------------------------|
|---------------------------|-----------------------------|
|---------------------------|---------------------[12]----|
|-----------------------7---|-----------------------------|
|-0-------3---4-----8-5---6-|-0-------3---3---------------|
|-0-0-0-0-3-0-4-0-0---------|-0-0-0-0-2-0-2-0-6-0---------|


COUPLET
PM----| PM PM| PM----| PM PM
||----------------------------|-----------------------------|
||o---------------------------|-------------------------6---|
||----------------------------|------------------7--------7-|
||------------------------7---|--------------------7-6------|
||o-0-------3---4-----8-5---6-|-0-------3---3---------------|
||--0-0-0-0-3-0-4-0-0---------|-0-0-0-0-2-0-3-0-------------|

PM----| PM PM| PM----| PM PM

||----------------------------|-----------------------------|
||o---------------------------|------------------------10-9-|
||------------------------7---|-----------------10-9-8------|
||----------------------7---6-|-----------------------------|
||o-0-------3---4-----5-------|-0-------3---3---------------|
||--0-0-0-0-3-0-4-0-0---------|-0-0-0-0-2-0-3-0-------------|


PM----| PM PM| PM----| PM PM PM
|---------------------------|-------------------------------||
|---------------------------|------------------------------o||
|---------------------------|-------------------------------||
|-----------------------7---|---------------------8-8-8-----||
|-0-------3---4-----8-5---6-|-0-------3---3-------6-6-6----o||
|-0-0-0-0-3-0-4-0-0---------|-0-0-0-0-2-0-2-0-6-0-----------||


PM----| PM PM| PM----| PM PM PM
|---------------------------|-------------------------------||
|---------------------------|------------------------------o||
|-----------------------7---|-------------------------------||
|---------------------7---6-|---------------------8-8-8-----||
|-0-------3---4-----5-------|-0-------3---3-------6-6-6----o||
|-0-0-0-0-3-0-4-0-0---------|-0-0-0-0-2-0-2-0-6-0-----------||


Bridge
PM PM PM--------| PM PM PM----| PM PM PM--------|
|-------------------------|-------------------------|--------------------------|
|-------------------------|-------------------------|--------------------------|
|-------------------------|-------------------------|--------------------------|
|-------------------------|---------------------5-4-|--------------------------|
|-2---2---0h2-2-2-2-2-2-2-|-2---2---0h2-2-2-2-2-----|-2---2---0h2-2-2-2-2-4-5--|
|-2-2-2-2-0h2-2-2-2-2-2-2-|-2-2-2-2-0h2-2-2-2-2-----|-2-2-2-2-0h2-2-2-2-2-4-5--|

PM PM PM--------| PM PM PM----| PM PM PM--------|
|-------------------------|-------------------------|--------------------------|
|-------------------------|-------------------------|--------------------------|
|-------------------------|---------------------4-3-|--------------------------|
|-------------------------|-------------------------|--------------------------|
|-2---2---0h2-2-2-2-2-2-2-|-2---2---0h2-2-2-2-2-----|-2---2---0h2-2-2-2-2-4-5--|
|-2-2-2-2-0h2-2-2-2-2-2-2-|-2-2-2-2-0h2-2-2-2-2-----|-2-2-2-2-0h2-2-2-2-2-4-5--|


PM PM PM
|-------------------------|
|-------------------------|
|-------------------------|
|---------------2p0-2h4h5-|
|-2---2---0h2-2-----------|
|-2-2-2-2-0h2-2-----------|


PM PM PM
|-------------------------|
|-------------------------|
|-----------------------4-|
|---------------5p4-5h7---|
|-2---2---0h2-2-----------|
|-2-2-2-2-0h2-2-----------|


PM PM PM--------------------| PM PM PM----|
|-------------------------------------|-------------------------|
|-------------------------------------|-------------------------|
|-------------------------------------|-------------------------|
|-------------------------------------|---------------------5-4-|
|-2---2---0h2-------------------------|-2---2---0h2-2-2-2-2-----|
|-2-2-2-2-0h2-2-2-2-2-2-2-2-2-2-2-2-2-|-2-2-2-2-0h2-2-2-2-2-----|

PM PM PM--------------------| PM PM PM----|
|-------------------------------------|-------------------------|
|-------------------------------------|-------------------------|
|-------------------------------------|---------------------4-3-|
|-------------------------------------|-------------------------|
|-2---2---0h2-------------------------|-2---2---0h2-2-2-2-2-----|
|-2-2-2-2-0h2-2-2-2-2-2-2-2-2-2-2-2-2-|-2-2-2-2-0h2-2-2-2-2-----|



PM PM PM--------| PM PM PM
|-------------------------|-------------------------|--------|
|-------------------------|-------------------------|--------|
|-------------------------|-------------------------|-<4>----|
|-------------------------|---------------2p0-2h4h5-|--------|
|-2---2---0h2-2-2-2-2-4-5-|-2---2---0h2-2-----------|--------|
|-2-2-2-2-0h2-2-2-2-2-4-5-|-2-2-2-2-0h2-2-----------|--------|

PM PM PM--------| PM PM PM ~~~
|-------------------------|-------------------------|--------|
|-------------------------|-------------------------|--------|
|-------------------------|-----------------------4-|--3-----|
|-------------------------|---------------5p4-5h7---|--------|
|-2---2---0h2-2-2-2-2-4-5-|-2---2---0h2-2-----------|--------|
|-2-2-2-2-0h2-2-2-2-2-4-5-|-2-2-2-2-0h2-2-----------|--------|


Er tussen, ik weet echt nooit hoe die dingen in het nederlands heten.. INTERLUDE
||-----13-10----12----15-13-10----12----|----13-------12----------------------|
||o----------10----13----------10----13-|-------13-10----13-15-13-------10-11-|
||--------------------------------------|-------------------------10-12-------|
||--12----------------------------------|-12----------------------------------|
||o-------------------------------------|-------------------------------------|
||--------------------------------------|-------------------------------------|

Gtr III
||-----13-10----12----15-13-10----12----|----13-------12----------------------|
||o----------10----13----------10----13-|-------13-10----13-15-13-------10-11-|
||--------------------------------------|-------------------------10-12-------|
||--12----------------------------------|-12----------------------------------|
||o-------------------------------------|-------------------------------------|
||--------------------------------------|-------------------------------------|

Gtr II
||--------------------------------------|-------------------------------------|
||o-------------------------------------|-------------------------------------|
||--------------------------------------|-------------------------------------|
||---7--------7--------7--------5--5--5-|--7--------7-----------------8--8--8-|
||o--5--------5--------5--------3--3--3-|--5--------5--------5--5--5--6--6--6-|
||------0--0-----0--0-----0--0----------|-----0--0-----0--0--5--5--5----------|


|----13-10----12----15-13-10----12----|--------12----13-----------10----12------||
|----------10----13----------10----13-|-15--13----13----13-13------------------o||
|-------------------------------------|------------------------12----12----12---||
|-12----------------------------------|-----------------------------------------||
|-------------------------------------|----------------------------------------o||
|-------------------------------------|-----------------------------------------||


|----13-10----12----15-13-10----12----|--------15----17-----------13----15------||
|----------10----13----------10----13-|-18-----------------17------------------o||
|-------------------------------------|-----17----17----17-----17----17----17---||
|-12----------------------------------|-----------------------------------------||
|-------------------------------------|----------------------------------------o||
|-------------------------------------|-----------------------------------------||


|-------------------------------------|-----------------------------------------||
|-------------------------------------|----------------------------------------o||
|-------------------------------------|-----------------------------------------||
|--7--------7--------7--------5--5--5-|--3------------------2-------------------||
|--5--------5--------5--------3--3--3-|--3------------------3------------------o||
|-----0--0-----0--0-----0--0----------|--3------------------2-------------------||


2e Coupletje
PM----| PM PM| PM----| PM PM
||----------------------------|-----------------------------|
||o---------------------------|-------------------------6---|
||----------------------------|------------------7--------7-|
||------------------------7---|--------------------7-6------|
||o-0-------3---4-----8-5---6-|-0-------3---3---------------|
||--0-0-0-0-3-0-4-0-0---------|-0-0-0-0-2-0-3-0-------------|

Gtr II
PM----| PM PM| PM----| PM PM
||----------------------------|-----------------------------|
||o---------------------------|------------------------10-9-|
||------------------------7---|-----------------10-9-8------|
||----------------------7---6-|-----------------------------|
||o-0-------3---4-----5-------|-0-------3---3---------------|
||--0-0-0-0-3-0-4-0-0---------|-0-0-0-0-2-0-3-0-------------|



PM----| PM PM| PM----| PM PM PM
|---------------------------|----------------------------||--------------10--(10)\----|
|---------------------------|---------------------------o||---------------------------|
|---------------------------|----------------------------||---5-----10-7--------------|
|-----------------------7---|---------------------8-8-8--||-----5-4-------------------|
|-0-------3---4-----8-5---6-|-0-------3---3-------6-6-6-o||-5-------------------------|
|-0-0-0-0-3-0-4-0-0---------|-0-0-0-0-2-0-2-0-6-0--------||---------------------------|

PM----| PM PM| PM----| PM PM PM
|---------------------------|----------------------------||--------------13--(13)\----|
|---------------------------|---------------------------o||---6-5---10-9--------------|
|-----------------------7---|----------------------------||-7-----8-------------------|
|---------------------7---6-|---------------------8-8-8--||---------------------------|
|-0-------3---4-----5-------|-0-------3---3-------6-6-6-o||---------------------------|
|-0-0-0-0-3-0-4-0-0---------|-0-0-0-0-2-0-2-0-6-0--------||---------------------------|



Refrein
PM--------| PM--------|
|----------------------------|----------------------------|
|----------------------------|----------------------------|
|----------------------------|----------------------------|
|----------------------------|----------------------------|
|-------------2--4----4-2--5-|-------------2--4----4-0--5-|
|-4-4-4-4-4-4-2--4----4-2--5-|-4-4-4-4-4-4-2--4----4-0--5-|

PM--------| PM--------|
|----------------------------|----------------------------|
|----------------------------|----------------------------|
|----------------------------|----------------------------|
|----------------------------|----------------------------|
|-------------2--4----4-2--5-|-------------2--4----4-0--5-|
|-4-4-4-4-4-4-2--4----4-2--5-|-4-4-4-4-4-4-2--4----4-0--5-|


Gtrs I, III
|---------------------------------|-----------------------------------------|
|---------------------------------|-----------------------------------------|
|---------------------------------|-11-----13-----14-11-14-----16-----14----|
|-11-11-9-14-14-9-11-11-9-14-14-9-|-----11----11------------14----14-----17-|
|--9--9-7-12-12-7--9--9-7-12-12-7-|-----------------------------------------|
|---------------------------------|-----------------------------------------|


|---------------------------------|-----------------------------------------|
|---------------------------------|-----------------------------------------|
|---------------------------------|-----------------------------------------|
|-11-11-9-14-14-9-11-11-9-14-14-9-|-11--------------------------------------|
|--9--9-7-12-12-7--9--9-7-12-12-7-|--9--------11---------7---------5--------|
|---------------------------------|-----------11---------7---------5--------|


Gtr I
PM--------| PM--------|
|----------------------------|-----------------------------|
|----------------------------|-----------------------------|
|----------------------------|-----------------------------|
|----------------------------|-----------------------------|
|-------------2--4----4-2--5-|-------------2--4----4-0--5--|
|-4-4-4-4-4-4-2--4----4-2--5-|-4-4-4-4-4-4-2--4----4-0--5--|


Gtr II
PM--------| PM--------|
|----------------------------|-----------------------------|
|----------------------------|-----------------------------|
|----------------------------|-----------------------------|
|----------------------------|-----------------------------|
|-------------2--4----4-2--5-|-------------2--4----4-0--5--|
|-4-4-4-4-4-4-2--4----4-2--5-|-4-4-4-4-4-4-2--4----4-0--5--|


Gtrs I, III
|---------------------------------|-----------------------------------------|
|---------------------------------|-----------------------------------------|
|---------------------------------|-11-----13-----14----14-----16-----16-13-|
|-11-11-9-14-14-9-11-11-9-14-14-9-|-----11----11-----11-----14----14--------|
|--9--9-7-12-12-7--9--9-7-12-12-7-|-----------------------------------------|
|---------------------------------|-----------------------------------------|



|---------------------------------|-----------------------------------------|
|---------------------------------|-----------------------------------------|
|---------------------------------|-----------------------------------------|
|-11-11-9-14-14-9-11-11-9-14-14-9-|-11--------------------------------------|
|--9--9-7-12-12-7--9--9-7-12-12-7-|--9--------11---------7---------5--------|
|---------------------------------|-----------11---------7---------5--------|



|-----------------------------------------|
|---------------------14------------------|
|-11-----13-----14-----------16----16-13--|
|-----11----11-----11-----14----14--------|
|-----------------------------------------|
|-----------------------------------------|

PM---|

|-----------------------------------------|
|-----------------------------------------|
|-----------------------------------------|
|------------6-------------------7--7--7--|
|--4---------4---------7---------5--5--5--|
|--4-------------------7------------------|



Gtr I
||-------15-12----14----17-15--12----14----|-----15-------14----------------------|
||o------------12----15-----------12----15-|--------15-12----15-17-15-------12-13-|
||-----------------------------------------|--------------------------12-14-------|
||--14-------------------------------------|-14-----------------------------------|
||o----------------------------------------|--------------------------------------|
||-----------------------------------------|--------------------------------------|

Gtr III

||-------15-12----14----17-15--12----14----|-----15-------14----------------------|
||o------------12----15-----------12----15-|--------15-12----15-17-15-------12-13-|
||-----------------------------------------|--------------------------12-14-------|
||--14-------------------------------------|-14-----------------------------------|
||o----------------------------------------|--------------------------------------|
||-----------------------------------------|--------------------------------------|


Gtr II
||-----------------------------------------|--------------------------------------|
||o----------------------------------------|--------------------------------------|
||-----------------------------------------|--------------------------------------|
||---9---------------------(9)-----7--7--7-|--9--------------------------10-10-10-|
||o--7---------------------(7)-----5--5--5-|--7------------------7--7--7--8--8--8-|
||-----------------------------------------|---------------------7--7--7----------|


|-----15-12----14----17--15-12----14----|--------14----15-----------12----14--------||
|-----------12----15-----------12----15-|-17--15----15----15-15--------------------o||
|---------------------------------------|------------------------14----14----14-----||
|-14------------------------------------|-------------------------------------------||
|---------------------------------------|------------------------------------------o||
|---------------------------------------|-------------------------------------------||



|-----15-12----14----17--15-12----14----|--------17----19-----------15----17--------||
|-----------12----15-----------12----15-|-20-----------------19--------------------o||
|---------------------------------------|-----19----19----19-----19----19----19-----||
|-14------------------------------------|-------------------------------------------||
|---------------------------------------|------------------------------------------o||
|---------------------------------------|-------------------------------------------||


|---------------------------------------|-------------------------------------------||
|---------------------------------------|------------------------------------------o||
|---------------------------------------|-------------------------------------------||
|--9------------------------------------|--5----------------------------------------||
|--7------------------2-----------------|--5------------------5--------------------o||
|---------------------2-----------------|--5------------------4---------------------||


Breakdown, heerlijk
|-----------------------------------||------------------------------------|
|-----------------------------------||o-----------------------------------|
|-----------------------------------||------------------------------------|
|-----------------------------------||------------------------------------|
|-----------------------------------||o-----------------------------------|
|-4-4-4-4-4-4-4-4-4-4-4-4-4-4-4-4-4-||--4-4-4-4-4-4-4-4-4-4-4-4-4-4-4-4-4-|



|---------------------------------------|-----------------------------------|
|---------------------------------------|-----------------------------------|
|---------------------------------------|-----------------------------------|
|-------------------------------------4-|-----------------------------------|
|---------------------------4-6-7-4-7---|-----------------------------------|
|-4-4-4-4-4-4-4-4-4-4-6-7-9-------------|-4-4-4-4-4-4-4-4-4-4-4-4-4-4-4-4-4-|



|--------------------------------------------------||
|-------------------------------------------------o||
|--------------------------------------------------||
|----------------------------------------------11--||
|-------------------------------11-12-14-11-14----o||
|-4-4-4-4-4-4-4-4-4-11-13-14-16--------------------||



|-----------------------------------|
|-----------------------------------|
|-----------------------------------|
|-----------------------------------|
|-----------------------------------|
|-4-4-4-4-4-4-4-4-4-4-4-4-4-4-4-4-4-|



|-----------------------------------------|
|-----------------------------------------|
|-----------------------------------------|
|-----------------------------------------|
|----------------------------6-7-9-6-9-11-|
|-4-4-4-4-4-4-4-4-4-6-7-9-11--------------|


Keyboard Solo
PM| PM PM| PM|
|--------------------------------------------|
|--------------------------------------------|
|--------------------------------------------|
|--------------------------------------------|
|-6-------6-----------6------------6---------|
|-6-6--6--6--6--8-----6-6--6-------6--6---6--|

Gtr IV (keybord dus he;))
|-----------------14S16----------------------|
|-----------14-16---------19b21==(19)r==(19)-|
|-----13-16----------------------------------|
|--------------------------------------------|
|--------------------------------------------|
|--------------------------------------------|


PM| PM PM| PM|
|------------------------------------|
|------------------------------------|
|------------------------------------|
|------------------------------------|
|--9-------9--------9--------9-------|
|--9-9--9-----9-11--9--9--9--9--9--9-|


|------19-21-23-19-------------------|
|-21---------------19----------------|
|---------------------18-20-16-20----|
|---------------------------------20-|
|------------------------------------|
|------------------------------------|


PM| PM PM| PM|
|---------------------------------------------|
|---------------------------------------------|
|---------------------------------------------|
|---------------------------------------------|
|--6-------6-----------6------------6---------|
|--6-6--6-----6--8-----6-6--6-------6--6---6--|


|---------------14-14S16----------------------|
|---------14-16------------19b21==(19)r==(19)-|
|------16-------------------------------------|
|-18------------------------------------------|
|---------------------------------------------|
|---------------------------------------------|


PM---| PM PM| PM
|----------------------------------------------|
|----------------------------------------------|
|----------------------------------------------|
|----------------------------------------------|
|--9-----------------9--------7--------7-------|
|--9-----9-----9--------9-11--7--7--7-----7--9-|



|-------23p21p19-------------------------17-21-|
|-22b24----------21p19----------------17-------|
|----------------------20p18-------18----------|
|----------------------------21-19-------------|
|----------------------------------------------|
|----------------------------------------------|


PM| PM PM| PM|
|----------------------------------------|
|----------------------------------------|
|----------------------------------------|
|----------------------------------------|
|--6-----------6--------6--------6-------|
|--6-----6--6-----6--8--6--6--6--6--6--6-|



|----------18----19----21----23----24----|
|-19pb21r=====21----21----21----21----21-|
|----------------------------------------|
|----------------------------------------|
|----------------------------------------|
|----------------------------------------|


PM---| PM PM---| PM--|
|------------------------------------------------------------------------|
|------------------------------------------------------------------------|
|------------------------------------------------------------------------|
|------------------------------------------------------------------------|
|--9-----------------9-----------------9-----------------9---------------|
|--9-----9-----9-----------9----11-----9-----9-----9-----9-----9----9----|



|-23-26p24p23p21p19-21p19p18p16-19p18p16p14-16p14p12p11-14p12p11p9h12p11-|
|------------------------------------------------------------------------|
|------------------------------------------------------------------------|
|------------------------------------------------------------------------|
|------------------------------------------------------------------------|
|------------------------------------------------------------------------|


PM---| PM PM| PM|
|-------------------------------------------|
|-------------------------------------------|
|-------------------------------------------|
|-------------------------------------------|
|--6--------------6--------6--------6-------|



|----------------------------11-12-14-16-18-|
|-12----11h12p11----11-12-14----------------|
|----------------13-------------------------|
|-------------------------------------------|
|-------------------------------------------|
|-------------------------------------------|


|----------------------------------------|
|----------------------------------------|
|----------------------------------------|
|----------------------------------------|
|--9---------------------2---------------|
|--9---------------------2---------------|



|-19-----21----23-19-19S21-----23----24--|
|-----19----19--------------22----22-----|
|----------------------------------------|
|----------------------------------------|
|----------------------------------------|
|----------------------------------------|


Guitar Solo, ziek gewoon
Gtr I
|------------------|-------------------------|
|------------------|-------------------------|
|------------------|-------------------------|
|------------------|-------------------------|
|-4----------------|-7-----------0-----------|
|-4----------------|-7-----------0-----------|

Gtr I Gtr V Gtr I

|------------------|-------------------------|
|-2--------x\------|-5----------10-----------|
|-4b6------x\------|-7b9---0----12b14---0----|
|------------------|-------------------------|
|------------------|-------------------------|
|------------------|-------------------------|



|-------------------------------------------|
|-------------------------------------------|
|-------------------------------------------|
|-------------------------------------------|
|--4----------------------------------------|
|--4----------------------------------------|


|---------------14----17b21===(17)r17-16-14-|
|-13b14--(13)------14-----------------------|
|-------------------------------------------|
|-------------------------------------------|
|-------------------------------------------|
|-------------------------------------------|



|-------------------------------------------------|
|-------------------------------------------------|
|-------------------------------------------------|
|-------------------------------------------------|
|--7--7--------7--7-----7--5--5--------5--5-----5-|
|--7--7--------7-----7-----5--5--------5-----5----|



|-21-19-21p19p17----19-17-19-15h19p15-------17-15-|
|----------------17-------------------15----------|
|----------------------------------------16-------|
|-------------------------------------------------|
|-------------------------------------------------|
|-------------------------------------------------|



|-----------------------------------|
|-----------------------------------|
|-----------------------------------|
|-----------------------------------|
|--4--------------------------------|
|--4--------------------------------|


|--------------------14-------------|
|-18b19--(18)-(18)------17-14-17----|
|-----------------------------------|
|-----------------------------------|
|-----------------------------------|
|-----------------------------------|


|---------------------------------------------------------------------------|
|---------------------------------------------------------------------------|
|---------------------------------------------------------------------------|
|---------------------------------------------------------------------------|
|--7------------------------------------0-----------------------------------|
|--7------------------------------------0-----------------------------------|



|--------------------------------------21--17-19-21-22-19-21-22-24-21-22-24-|
|-14--16-17-19-16-17-19-21-17-19-21-22--------------------------------------|
|---------------------------------------------------------------------------|
|---------------------------------------------------------------------------|
|---------------------------------------------------------------------------|
|---------------------------------------------------------------------------|


|-----------------------------------|---------------------------------------|
|-----------------------------------|---------------------------------------|
|-----------------------------------|---------------------------------------|
|-----------------------------------|---------------------------------------|
|--4--------------------------------|--7------------------2-----------------|
|--4--------------------------------|--7------------------2-----------------|


|-24b26------24b26r(24)-21----------|-21-----22----24-21-19-----21----22-19-|
|--------------------------22----24-|-----22----22-----------21----21-------|
|-----------------------------21----|---------------------------------------|
|-----------------------------------|---------------------------------------|
|-----------------------------------|---------------------------------------|
|-----------------------------------|---------------------------------------|

Gtr IV
|-----------------------------------|-17-----19----21-17-16-----17----19-16-|
|-----------------------------------|-----17----17-----------17----17-------|
|-----------------------------------|---------------------------------------|
|-----------------------------------|---------------------------------------|
|-----------------------------------|---------------------------------------|
|-----------------------------------|---------------------------------------|



|------------------------------------------|----------------------|
|------------------------------------------|----------------------|
|------------------------------------------|----------------------|
|------------------------------------------|----------------------|
|--4---------------------0-----------------|--2------2------2-----|
|--4---------------------0-----------------|--2------2------2-----|


|-17-----19----21-17-17S14-----16----17-14-|----------------------|
|-----19----19--------------15----15-------|-15b17--15b17--15b17--|
|------------------------------------------|----------------------|
|------------------------------------------|----------------------|
|------------------------------------------|----------------------|
|------------------------------------------|----------------------|


|-14-----1