Weather with you

Gitaarliedjes, tabs & akkoorden (chords) Weather with you - crowded house

Songtype: Tab

arrow&v

Markeer als favoriet

Favoriet

Gemarkeerd als favoriet

Capo:

0

crowded house

crowded house

Song
Album
Categorie

Weather with you

Downloads
1078
Niveau
2
woodface

Geplaatst door
dave bleeker
ProTabs-promo.jpg

Intro (1) en (2)

Gedeelte (1) . Gedeelte (2)
.
Em7 Asus4 Em7 Asus4 . Em7 Asus4 Em7 Asus4
.
--0--0--0--0--0--0-0--0--0--0-0-0-0----------.-0--0--0--0--0--0-0-0--0--0--0--0--0---
--5--5--3--5--5--7-8--5--5--3-2-3-2-0---0----.-5--5--3--5--5--7-8-7--5--3--0--0--2---
------------------------------------2--2--0--.---------------------------------------
---------------------------------------------.---------------------------------------
---------------------------------------------.---------------------------------------
---------------------------------------------.---------------------------------------


Em7 Asus4
Walking round the room singing Stormy weather
Em7 Asus4
At 57 mt. pleasant street
Em7 Asus4
Now its the same room but everythings different
Em7 Asus4
You can fight the sleep but not the dream
Dm C Dm C
Things aint cooking in my kitchen
Dm C F Am7
Strange affliction wash over me
Dm C Dm C
Julius caesar and the roman empire
Dm C F G
Couldnt conquer the blue sky

Intro (2)

Chorus
A7sus4 D
Everywhere you go you always take the weather with you
A7sus4 D Dsus4 D
Everywhere you go you always take the weather
A7sus4 G
Everywhere you go you always take the weather with you
F#m G
Everywhere you go always take the weather
A Em7
The weather with you

Intro (2)

Em7 Asus4
Theres a small boat made of china
Em7 Asus4
Going nowhere on the mantle_piece
Em7 Asus4
Do I lie like a loungeroom lizard
Em7 Asus4
Or do I sing like a bird released

Chorus
A7sus4 D
Everywhere you go you always take the weather with you
A7sus4 D Dsus4 D
Everywhere you go you always take the weather
A7sus4 G
Everywhere you go you always take the weather with you
F#m G
Everywhere you go always take the weather
A Em7
The weather with you

Intro

--0--0-0-0--0--0-0-0--0--0--0-0--0-0-0--0-0-0-0-0-0-0-0--0-0------------
--5--5-3-5--5--7-8-5--12-10-8-5--5-3-5--5-7-8-7-5-3-0-0--3-5-0-0-0-0-0--
-------------------------------------------------------------2-0-2-4-6--
------------------------------------------------------------------------
------------------------------------------------------------------------
------------------------------------------------------------------------

Chorus
A7sus4 D
Everywhere you go you always take the weather with you
A7sus4 D Dsus4 D
Everywhere you go you always take the weather
A7sus4 G
Everywhere you go you always take the weather with you
F#m E
Everywhere you go always take the weather
G A D
Take the weather The weather with you

Outro

Asus4 D Asus4 D Asus4 G F#m E G Asus4 D

ProTabs promo.jpg

Onbeperkt en gratis toegang tot alle 25.000
Tabs & Chords en direct meespelen met

Artiest Liedje

...

Gitaarakkoorden crowded house - Weather with you

Dankzij de bladmuziek op deze pagina wordt het een stuk makkelijker om met de gitaar mee te spelen met Weather with you van crowded house De ProTabs van Gitaartabs worden door onze professionele gitaardocenten samengesteld. De tabs en chords zijn door leden zelf geplaatst. Deze undefined van crowded house met Weather with you is voor je geschreven door dave bleeker

Tabs & Chords van crowded house - Weather with you

Bij de ProTabs delen we niet alleen de tablatuur maar ook de speelwijze van Weather with you Met een beetje gitaar ervaring moet je dit gitaarliedje zeker kunnen spelen, maar als het niet lukt zijn we er altijd om je te helpen. Door een gratis account aan te maken krijg je niet alleen toegang tot deze tab ,akkoorden & tabs van Weather with you maar kun je ook onbeperkt meespelen met een van de meer dan 25.000 andere tabs & chords in onze database.

Plaats opmerking

Verstuur

Beoordeel deze song

Rate UsDon’t love itNot greatGoodGreatLove itRate Us

Bedankt voor je beoordeling!