China grove

Gitaarliedjes, tabs & akkoorden (chords) China grove - doobie brothers

Songtype: Tab

arrow&v

Markeer als favoriet

Favoriet

Gemarkeerd als favoriet

Capo:

0

doobie brothers

doobie brothers

Song
Album
Categorie

China grove

Downloads
820
Niveau
2
Geplaatst door
gitaartabs
ProTabs-promo.jpg

China Grove
The Doobie Brothers


Intro : w/ delay
e------------------------------|-------------------------------|
b--9--9\-x-x-x-x-9--9\-x-x-x-x-|--7-x-x--2-x-x--2-x-9--9-------|
g--9--9\-x-x-x-x-9--9\-x-x-x-x-|--7-x-x--2-x-x--2-x-9--9-------|
d--9--9\-x-x-x-x-9--9\-x-x-x-x-|--7-x-x--2-x-x--2-x-9--9-------|
a--7--7\-x-x-x-x-7--7\-x-x-x-x-|--5-x-x--4-x-x--0-x-7--7-------|
e------------------------------|-------------------------7-9-0-|


Intro: EDAE (repeat 2x), EDA..

E
When the sun comes up on a sleepy little town

D A E
Down around San Antone

E
And the folks are risin' for another day

D A E
round about their homes

C#m B (E,B)
The people of the town are strange

A A A# B C
and they're proud of where they came,

Chorus:

E D A
Well you're talkin' 'bout China Grove
(background vocals: talkin' 'bout China Grove),

E
Whoa oh ho...

D A E D A E
Who ho China Grove


Well the preacher and the teacher, Lord, they're a caution

They are the talk of the town

When the gossip hits the fan, they ain't lyin'

when the sun goes fallin' down

Well they say that the father's insane,

and dear Missus Perkins a game,

Chorus


Bridge:

G#m B C#m
Well every day there's a new thing comin',

F#m7 C#m
The ways of an oriental view.

C#m
The sheriff and his buddies with their samurai swords,

F# F#sus4 F# G#m B
you can even hear the music at night.

C#m
And though it's a part of the Lone Star state

F#m7 C#m
The people don't seem to care

A C,D,E CDE
They'll just keep on lookin' to the east...

instrumental break(6 sets of E,D,A,E like intro, then verse starting from C#m
to end)

Chorus

Solo :
e------------------------------|-------------------------------|
b------------------------------|-------------------------------|
g-------9-9----11------9-11b13-|-11b13--11b13r11-9--9vvv-11b14-|
d--9h11-----11----9-11---------|-------------------------------|
a------------------------------|-------------------------------|
e------------------------------|-------------------------------|

e------------------------------|-------------------------------|
b-------------------------12b14|vv-12-12b14--12----------------|
g-11b13r11-9----9vvv-----------|----------------11b13r11p9-----|
d------------11------11--------|---------------------------11--|
a------------------------------|-------------------------------|
e------------------------------|-------------------------------|

e--------------12------12------|---------------------------12--|
b------------------------------|------------------------12-----|
g--9--9--11b13---11b13----11br-|-9----9vvvv-11b13vv-/13--------|
d------------------------------|---11--------------------------|
a------------------------------|-------------------------------|
e------------------------------|-------------------------------|

e----------------------------|-------------12-------12-----|
b-15vvv-15-15-15-15-15-15-15-|-15-15-15-15----12h15----12--|
g----------------------------|-----------------------------|
d----------------------------|-----------------------------|
a----------------------------|-----------------------------|
e----------------------------|-----------------------------|

e--15b17vvv--15-15b16--15-15b16-|-15-15b16-12----12-------------|
b-------------------------------|-------------15----15b17vvv-15-|
g-------------------------------|-------------------------------|
d-------------------------------|-------------------------------|
a-------------------------------|-------------------------------|
e-------------------------------|-------------------------------|

e----------------------12------|-----------------------------12-|
b--15b17vv-15-15b17vvv----15-15|b17vvv-15-12-15-14-12------12---|
g------------------------------|----------------------12h13-----|
d------------------------------|--------------------------------|
a------------------------------|--------------------------------|
e------------------------------|--------------------------------|

e---------------------------|
b-12--15-12-----------------|
g-----------14b16-12b-------|
d----------------------14\\-|
a---------------------------|
e---------------------------|

China Grove by: The Doobie Brothers
Rhy fig.1

E-|-----------------------|-----------------------|
B-|-----------------------|-----------------------|
G-|--9--9----------------|--9--9----------------|
D-|--9--9----x-----x-----|--9--9----x-----x-----|
A-|--7--7----x-----x-----|--7--7----x-----x-----|
E-|--------------0-----0--|--------------0-----0--|
m m m m
end fig.1 3 and 3/4 times
E-|-------------------------|----------------------|
B-|-------------------------|----------------------|
G-|--7-------6--------2-----|--------9--9----------|
D-|--7-------6--------2-----|--------9--9----------|
A-|--5-------4--------0-----|--------7--7----------|
E-|-------0--------0-----0--|--0--0--------7h9--0--|

1st verse with fig.1 twice


Rhy fig.2
E-|---------------------|--------------------|-------------------------|
B-|---------------------|--------------------|-------------------------|
G-|-----------9--9------|--------------------|-------------------------|
D-|-11--11---11--9---9--|--x--9----9---------|-------------------------|
A-|-11--11-----------9--|--x--9----9---------|--7--7--7--7--7--8--9-10-|
E-|--9---9--------x--7--|--x--7----7---0--0--|--5--5--5--5--5--6--7--8-|


end fig.2
E-|-----------------------|
B-|-----------------------|
G-|-----------------------|
D-|-----------7-----7-----|
A-|-----------7-----7-----|
E-|--0--7--9-----9-----0--|


Chorus
Rhy fig.3
E-|----------------------|----------------------|------------------|
B-|----------------------|----------------------|------------------|
G-|--9--9----------------|--7--7----------------|--9---------------|
D-|--9--9----x-----x-----|--7--7---7------------|--9--------6------|
A-|--7--7----x-----x-----|--5--5---4---4--7-----|--7--7--9---------|
E-|-------------0-----0--|-------------------0--|------------------|


E-|----------------------|-----------------|-----------------------|
B-|----------------------|-----------------|-----------------------|
G-|--7--7-------------9--|-----------------|--7--7-----------------|
D-|--7--7---7---------9--|----------6------|--7--7---7-------------|
A-|--5--5---4---------7--|----7--9---------|--5--5---4-------------|
E-|-------------0--0-----|-----------------|--------------0--0--0--|


end fig.3


E-|--------------------------|-----------------------|
B-|--------------------------|-----------------------|
G-|--------------9--9--9--9--|--9--------------------|
D-|--------9--9--9--9--9--9--|--9--------------------|
A-|--------7--7--7--7--7--7--|--7--------------7-----|
E-|--0--0--0--0--0--0--0--0--|--0---------7h9-----0--|

2nd verse with fig.1 twice
fig.2

Chorus with fig.3

Solo

E-|-----------------|-------|-------|-------|--------------------------|
B-|-----------------|-------|-------|-------|--------------------------|
G-|-----------------|-------|--.----|--.----|--------9--9------11-----9|
D-|--------------9--|--(9)--|---/---|---/---|--9h11--------11------9-11|
A-|--------9h11-----|-------|----.--|----.--|--------------------------|
E-|-----------------|-------|-------|-------|--------------------------|

E-|-------------------------|-------------|---------------------------|
B-|-------------------------|-------------|---------------------------|
G-|--11b13---11b13---11b13--|--11--9---9--|--11b14--11b13---9------9--|
D-|-------------------------|-------------|-------------------11------|
A-|-------------------------|-------------|---------------------------|
E-|-------------------------|-------------|---------------------------|


E-|------------------|---------------------------|------------------12-|
B-|-----------12b14--|--12--12b14-----12---------|---------------------|
G-|------------------|--------------------11b13--|--11p9--9-9--11b13---|
D-|--11--------------|---------------------------|--------11-----------|
A-|------------------|---------------------------|---------------------|
E-|------------------|---------------------------|---------------------|


E-|----------12----------------------|----------------12-----|
B-|----------------------------------|-------------12----15--|
G-|--11b13-------11b13r11--9------9--|----11---/13-----------|
D-|---------------------------11-----|-----------------------|
A-|----------------------------------|-----------------------|
E-|----------------------------------|-----------------------|


E-|-------------|------------------12---------|--12-----15b17----15--15b17--|
B-|----15---15--|--15--15--15--15------12h15--|-----12----------------------|
G-|-------------|-----------------------------|-----------------------------|
D-|-------------|-----------------------------|-----------------------------|
A-|-------------|-----------------------------|-----------------------------|
E-|-------------|-----------------------------|-----------------------------|


E-|--15--15b17--15--15b17--12------12---------|------------------------|
B-|----------------------------15------15b17--|-15--15b17---15--15b17--|
G-|-------------------------------------------|------------------------|
D-|-------------------------------------------|------------------------|
A-|-------------------------------------------|------------------------|
E-|-------------------------------------------|------------------------|



E-|-------------------------------|-------------------------12------|
B-|--15b17--15--15b17-----15--12--|--15--14--12---------12------12--|
G-|-------------------------------|--------------12/13--------------|
D-|-------------------------------|---------------------------------|
A-|-------------------------------|---------------------------------|
E-|-------------------------------|---------------------------------|


E-|------------------------------|-------------------------------------|
B-|--15--12----------------------|-------------------------------------|
G-|----------14b16--12b14--------|-------------------------------------|
D-|-------------------------14--|-------------------------------------|
A-|------------------------------|-------------------------------------|
E-|------------------------------|-------------------------------------|





ProTabs promo.jpg

Onbeperkt en gratis toegang tot alle 25.000
Tabs & Chords en direct meespelen met

Artiest Liedje

...

Gitaarakkoorden doobie brothers - China grove

Dankzij de bladmuziek op deze pagina wordt het een stuk makkelijker om met de gitaar mee te spelen met China grove van doobie brothers De ProTabs van Gitaartabs worden door onze professionele gitaardocenten samengesteld. De tabs en chords zijn door leden zelf geplaatst. Deze undefined van doobie brothers met China grove is voor je geschreven door gitaartabs

Tabs & Chords van doobie brothers - China grove

Bij de ProTabs delen we niet alleen de tablatuur maar ook de speelwijze van China grove Met een beetje gitaar ervaring moet je dit gitaarliedje zeker kunnen spelen, maar als het niet lukt zijn we er altijd om je te helpen. Door een gratis account aan te maken krijg je niet alleen toegang tot deze tab ,akkoorden & tabs van China grove maar kun je ook onbeperkt meespelen met een van de meer dan 25.000 andere tabs & chords in onze database.

Plaats opmerking

Beoordeel deze song

Rate UsDon’t love itNot greatGoodGreatLove itRate Us

Bedankt voor je beoordeling!