Pouring my heart out again

Gitaarliedjes, tabs & akkoorden (chords) Pouring my heart out again - golden earring

Songtype: Tab

arrow&v

Markeer als favoriet

Favoriet

Gemarkeerd als favoriet

Capo:

0

golden earring

golden earring

Song
Album
Categorie

Pouring my heart out again

Downloads
1795
Niveau
2

Geplaatst door
gitaartabs
ProTabs-promo.jpg

Pouring My Heart Out Again


Intro: (5X)

|------------------|-------------------|-------------------|--------------------|
|-----5--------5---|-----0-------0-----|-----5--------5----|-----0--------0-----|
|------------6-----|---2-------1-------|------------6------|---2--------1-------|
|---6------7-----7-|-0-------2-----2/6-|---6------7------7-|-0--------2-----2/6-|
|--------0---------|-------------------|--------0----------|--------------------|
|-4----------------|-------0-----------|-4-----------------|--------0-----------|

Verse 1:

E/G# A D E E/G# A
|------------------------|----------------------------|--------------------------|
|-------------------5----|--------0-----------0-------|--------------------5-----|
|--------4--------6------|-----2-----------1----------|--------4--------6--------|
|-----6--------7------7--|--0-----------2--------2/6--|-----6--------7--------7--|
|-----------0------------|----------------------------|-----------0--------------|
|--4---------------------|-----------0----------------|--4-----------------------|
Another hour past midnight moon - shine through the

D E E/G# A D E
|---------------------------|-------------------------|--------------------------|
|--------0-----------0------|-------------------5-----|--------0-----------0-----|
|-----2-----------1---------|-------4--------6--------|-----2-----------1--------|
|--0-----------2--------2/6-|----6--------7--------7--|-0-----------2--------2/6-|
|---------------------------|----------0--------------|--------------------------|
|-----------0---------------|-4-----------------------|-----------0--------------|
sky - line The bottle's empty and my mind is full

E/G# A D E E/G# A
|------------------------|----------------------------|--------------------------|
|-------------------5----|--------0-----------0-------|--------------------5-----|
|--------4--------6------|-----2-----------1----------|--------4--------6--------|
|-----6--------7------7--|--0-----------2--------2/6--|-----6--------7--------7--|
|-----------0------------|----------------------------|-----------0--------------|
|--4---------------------|-----------0----------------|--4-----------------------|
of your ghost who keeps haunting this room And I__________ could spend all




D E E/G# A D E
|---------------------------|-------------------------|--------------------------|
|--------0-----------0------|-------------------5-----|--------0-----------0-----|
|-----2-----------1---------|-------4--------6--------|-----2-----------1--------|
|--0-----------2--------2/6-|----6--------7--------7--|-0-----------2--------2/6-|
|---------------------------|----------0--------------|--------------------------|
|-----------0---------------|-4-----------------------|-----------0--------------|
my life just sitting here pa - ra - lized

E/G# A D E E/G# A
|------------------------|----------------------------|--------------------------|
|-------------------5----|--------0-----------0-------|--------------------5-----|
|--------4--------6------|-----2-----------1----------|--------4--------6--------|
|-----6--------7------7--|--0-----------2--------2/6--|-----6--------7--------7--|
|-----------0------------|----------------------------|-----------0--------------|
|--4---------------------|-----------0----------------|--4-----------------------|
I____________ could spend all my life waiting for you to ma-

D E D Bm
|---------------------------|-------------------------|--------------2-----------|
|--------0-----------0------|--------3--------3-------|-----------3--------3-----|
|-----2-----------1---------|-----2--------2----------|--------4--------------4--|
|--0-----------2--------2-0-|--0--------0-----------0-|-----4-----------4--------|
|---------------------------|-------------------------|--2-----------------------|
|-----------0---------------|-------------------------|--------------------------|
rerialize and love_________ was the on - ly thing I

E A Bm
|----------------0---------|---------------------------|-------------------------|
|-------------------0------|-----------2--------2------|-----------3-------------|
|----------1--2--------2---|--------2--------2---------|--------4----------4-----|
|-------2------------------|-----2-----------------0---|-----4----------4-----4--|
|--------------------------|--0------------------------|--2----------------------|
|--0-----------------------|---------------------------|-------------------------|
al - ways felt for you______________ big - ger than a-

E
|--------------2-----------|--0-----------------------|--------------------------|
|-----------3--------3-----|--0-----------------------|--------------------------|
|--------4-----------------|--1-----------------------|--------------------------|
|-----4-----------4--------|--2-----------------------|--------------------------|
|--2-----------------------|--2-----------------------|--------------------------|
|--------------------------|--0-----------------------|--------------------------|
ny - thing baby I'd die_____ for you now

Refrain:

A D
Hold me 'Cause I think I'm falling like rain___________
Bm D F#m/C#
on a Monday morning And________when it rains_____ I'm pouring
E E A
my heart out again_________ now Hold me 'cause I
D Bm
think I'm falling like rain on a Monday morning
D F#m/C# E
And when it rains I'm pouring my heart out again__

(guitarsolo)

A F#m/C# F#m
And when it rains I'm pouring my heart out again
A Asus4 D
Now hold me 'cause I think I'm falling like rain
Bm D
on a monday morning And when it rains
F#m/C# E/G#
I'm pouring_______ my heart out again________
D E A D E E/G# A D
My heart out again___ ooh I'm pouring my heart out again


Verse 2:

I can't remember I can't forget
I can't see 'cause my eyes are wet
The bottle's empty and it says: you fool
How many tears do I spill for you
And I could spend all my life
Just sitting here paralized
I could spend all my life
Like a thorn or glass in your eyes
And love was the only thing I always felt for you
Bigger than anything baby I'd die for you
Now hold me 'cause I think I'm falling like rain
on a Monday morning

(play this 3 times)
And when it rains I'm pouring my heart out again
Now hold me 'cause I think I'm falling like rain
on a Monday morning

And when it rains I'm pouring my heart out again
My heart out again

ProTabs promo.jpg

Onbeperkt en gratis toegang tot alle 25.000
Tabs & Chords en direct meespelen met

Artiest Liedje

...

Gitaarakkoorden golden earring - Pouring my heart out again

Dankzij de bladmuziek op deze pagina wordt het een stuk makkelijker om met de gitaar mee te spelen met Pouring my heart out again van golden earring De ProTabs van Gitaartabs worden door onze professionele gitaardocenten samengesteld. De tabs en chords zijn door leden zelf geplaatst. Deze undefined van golden earring met Pouring my heart out again is voor je geschreven door gitaartabs

Tabs & Chords van golden earring - Pouring my heart out again

Bij de ProTabs delen we niet alleen de tablatuur maar ook de speelwijze van Pouring my heart out again Met een beetje gitaar ervaring moet je dit gitaarliedje zeker kunnen spelen, maar als het niet lukt zijn we er altijd om je te helpen. Door een gratis account aan te maken krijg je niet alleen toegang tot deze tab ,akkoorden & tabs van Pouring my heart out again maar kun je ook onbeperkt meespelen met een van de meer dan 25.000 andere tabs & chords in onze database.

Plaats opmerking

Verstuur

Beoordeel deze song

Rate UsDon’t love itNot greatGoodGreatLove itRate Us

Bedankt voor je beoordeling!