Rockin' all over the world

Gitaarliedjes, tabs & akkoorden (chords) Rockin' all over the world - john fogerty

Songtype: Tab

arrow&v

Markeer als favoriet

Favoriet

Gemarkeerd als favoriet

Capo:

0

john fogerty

john fogerty

Song
Album
Categorie

Rockin' all over the world

Downloads
197
Niveau
2
Geplaatst door
gitaartabs
ProTabs-promo.jpg

John Fogerty - Rockin' all over the world

Intro:

e|----10---10---10---------------------------------------------10~-----------|
B|----10---10---10----------------------------7----------------10~-----------|
G|---9b(11)--(11)rb9--7------7-7-7-7-7-7-7--7---9-7--------------------------|
D|----------------------9-7--7-9-7-7-9-7-7----------9-7----------------------|
A|------------------------------------------------------9--------------------|
E|--------------------------------------------------------10~----------------|

e|----10------10--------------10~---10\--------------------------------------|
B|----10------10--------------10~---10\--------------------------------------|
G|---9b(11)--9b(11)--9-7---7-------------------------------------------------|
D|-----------------------9---------------------------------------------------|
A|---------------------------------------------------------------------------|
E|---------------------------------------------------------------------------|

Verse 1:
Alle akkoorden speel je in Rock stijl
D G A
e|---------|---------|---------|
B|---------|---------|---------|
G|---------|---------|---------|
D|-7-7-9-7-|---------|-2-2-4-2-|
A|-5-5-5-5-|-5-5-7-5-|-0-0-0-0-|
E|---------|-3-3-3-3-|---------|

D
Well, a-here-ee-yup, a-here-ee-yup, a-here we go,
G
Water born, cos we're hittin' the road,
D A D
Here we go-oh! Rockin' all over the world!

Verse 2:

D
Well, a-geedeeup, a-geedeeup, a-get away,
G D
We're goin' crazy, and we're goin' today, here we go-oh!
A D
Rockin' all over the world!

Chorus:

D
And I like it, I like it, I like it, I like it,
G D a D
I la-la-like it, la-la-like, here we go-oh! Rockin' all over the world!

Gitaar Solo: De lead gitaar speelt de solo, en de ritme gitaar de akkorden van de Chorus.

e|--------10------10-----------------------3---3---3-------------------------|
B|--------10------10-----------------------3---3---3-------------------------|
G|---9/11----9/11-----9h10-9--------------2b(4)--(4)rb2--2-------------------|
D|---------------------------11-9-11-11\---*-------#-------2p0---------------|
A|---------------------------------------------------------------------------|
E|---------------------------------------------------------------------------|

e|----------------2-2---------------5---5---5--------------10~--10~--10\-----|
B|----------------3-3--5b6b5-3~-3\--5---5---5--------------10~--10~--10\-----|
G|---7-9-7-7-9-7--2-2--------------4b(6)--(6)rb4--2--------------------------|
D|---5-5-5-5-5-5--0-0-------------------------------4-2-0--------------------|
A|---------------------------------------------------------------------------|
E|---------------------------------------------------------------------------|

Piano Solo: Speelt de Chorus 1x, de gitaar kan de Power-chords palm-muted spelen.

Verse 3:

D
Well, I'm gonna tell your mama what your daddy do,
G
He come out of the night with your dancin' shoes,
D a D
Here we go-oh! Rockin' all over the world!

Chorus:

D
And I like it, I like it, I like it, I like it,
G D a D
I la-la-like it, la-la-like, here we go-oh! Rockin' all over the world!

Chorus:

D
And I like it, I like it, I like it, I like it,
G D a D
I la-la-like it, la-la-like, here we go-oh! Rockin' all over the world!

Chorus:

D
And I like it, I like it, I like it, I like it,
G D a D
I la-la-like it, la-la-like, here we go-oh! Rockin' all over the world!

Chorus:

D
And I like it, I like it, I like it, I like it,
G D a D
I la-la-like it, la-la-like, here we go-oh! Rockin' all over the world!

Chorus:

D
And I like it, I like it, I like it, I like it,
G D a D
I la-la-like it, la-la-like, here we go-oh! Rockin' all over the world!

| / slide up
| \ slide down
| h hammer-on
| p pull-off
| ~ vibrato
| + harmonic
| x Mute note

ProTabs promo.jpg

Onbeperkt en gratis toegang tot alle 25.000
Tabs & Chords en direct meespelen met

Artiest Liedje

...

Gitaarakkoorden john fogerty - Rockin' all over the world

Dankzij de bladmuziek op deze pagina wordt het een stuk makkelijker om met de gitaar mee te spelen met Rockin' all over the world van john fogerty De ProTabs van Gitaartabs worden door onze professionele gitaardocenten samengesteld. De tabs en chords zijn door leden zelf geplaatst. Deze undefined van john fogerty met Rockin' all over the world is voor je geschreven door gitaartabs

Tabs & Chords van john fogerty - Rockin' all over the world

Bij de ProTabs delen we niet alleen de tablatuur maar ook de speelwijze van Rockin' all over the world Met een beetje gitaar ervaring moet je dit gitaarliedje zeker kunnen spelen, maar als het niet lukt zijn we er altijd om je te helpen. Door een gratis account aan te maken krijg je niet alleen toegang tot deze tab ,akkoorden & tabs van Rockin' all over the world maar kun je ook onbeperkt meespelen met een van de meer dan 25.000 andere tabs & chords in onze database.

Plaats opmerking

Beoordeel deze song

Rate UsDon’t love itNot greatGoodGreatLove itRate Us

Bedankt voor je beoordeling!