Harry potter title theme

Gitaarliedjes, tabs & akkoorden (chords) Harry potter title theme - john williams

Songtype: Tab

arrow&v

Markeer als favoriet

Favoriet

Gemarkeerd als favoriet

Capo:

0

john williams

john williams

Song
Album
Categorie

Harry potter title theme

Downloads
1662
Niveau
1

Geplaatst door
gitaartabs
ProTabs-promo.jpg

e-----0-3-2-0--7-5-2--0-3-2---2-------0-3-2-0---7-10-9-8--5-8-7-6---3---0---------
b---0-----------------------3---0----0--------------------------------0-----------
g---------------------------------------------------------------------------------
d---------------------------------------------------------------------------------
a---------------------------------------------------------------------------------
e---------------------------------------------------------------------------------

e-----3-7--3-7--3-8-7-6--2-3-8-7-6--2-7-------------
b---------------------------------------------------
g---------------------------------------------------
d---------------------------------------------------
a---------------------------------------------------
e---------------------------------------------------

e----3-7---3-7--3-10-9-8--5-8-7-6---2-3-0----------
b--------------------------------------------------
g--------------------------------------------------
d--------------------------------------------------
a--------------------------------------------------
e--------------------------------------------------


ProTabs promo.jpg

Onbeperkt en gratis toegang tot alle 25.000
Tabs & Chords en direct meespelen met

Artiest Liedje

...

Gitaarakkoorden john williams - Harry potter title theme

Dankzij de bladmuziek op deze pagina wordt het een stuk makkelijker om met de gitaar mee te spelen met Harry potter title theme van john williams De ProTabs van Gitaartabs worden door onze professionele gitaardocenten samengesteld. De tabs en chords zijn door leden zelf geplaatst. Deze undefined van john williams met Harry potter title theme is voor je geschreven door gitaartabs

Tabs & Chords van john williams - Harry potter title theme

Bij de ProTabs delen we niet alleen de tablatuur maar ook de speelwijze van Harry potter title theme Met een beetje gitaar ervaring moet je dit gitaarliedje zeker kunnen spelen, maar als het niet lukt zijn we er altijd om je te helpen. Door een gratis account aan te maken krijg je niet alleen toegang tot deze tab ,akkoorden & tabs van Harry potter title theme maar kun je ook onbeperkt meespelen met een van de meer dan 25.000 andere tabs & chords in onze database.

Plaats opmerking

Verstuur

Beoordeel deze song

Rate UsDon’t love itNot greatGoodGreatLove itRate Us

Bedankt voor je beoordeling!