Suicide is painless

Gitaarliedjes, tabs & akkoorden (chords) Suicide is painless - m*a*s*h*.

Songtype: Tab

arrow&v

Markeer als favoriet

Favoriet

Gemarkeerd als favoriet

Capo:

0

m*a*s*h*.

m*a*s*h*.

Song
Album
Categorie

Suicide is painless

Downloads
1431
Niveau
1
Geplaatst door
gitaartabs
ProTabs-promo.jpg

Suicide is Painless

Here's the theme to M*A*S*H, aka "Suicide is Painless".
"Cause suicide is painless/it brings on many changes..."


Dm7 G7 C Am7
E-|-3---1--0--1--0--1|-(1)-0-----------|---0------0------|--0--------------0--|
B-|------------------|----------3------|-------3-------3-|-----3---1----------|
G-|------------------|-----------------|-----------------|--------------------|
D-|------------------|-----------------|-----------------|--------------------|
A-|------------------|-----------------|-----------------|--------------------|
E-|------------------|-----------------|-----------------|--------------------|

Dm7 G7 C A7
E-|------------------|-----------------|-----------------|----------0---------|
B-|-3----1--3--1---3-|(3)-1---0-----3--|-1----0--1--0---1|-(1)-3--------------|
G-|------------------|-----------------|-----------------|--------------------|
D-|------------------|-----------------|-----------------|--------------------|
A-|------------------|-----------------|-----------------|--------------------|
E-|------------------|-----------------|-----------------|--------------------|

--------------------------------------------------------------------------------

If I've made an error in the chords let me know. I saw them in Guitar
or some mag. I can't remember. Anyway, they sound pretty true. One more
thing, just a regular G will do instead of a G7, I can't tell much
difference.


Suicide is Painless--Theme from the movie M*A*S*H


Dm7 G7
Through Early morning fog I see
C Am7
Visions of the things to be
Dm7 G7
The pains that are withheld for me
C Am
I realize and I can see
Dm7 G7
That Suicide is Painless
C Am7
It brings on many changes
Dm7 G7 Am
And I can take or leave it if I please

2)Try to find a way to make
All our little joys relate
Without that ever present hate
But now I know that it's too late
And (chorus)

3)The game of life is hard to play
I'm going to lose it anyway
The losing card I'll someday lay
So this is all I have to say
That (chorus)

4)The only way to win is cheat
And lay it down before I'm beat
And to another give a seat
For that's the only painless feat
'Cause (chorus)

5)The sword of time will pierce our skins
It doesn't hurt when it begins
But as it works it's way on in
The pain grow stronger watch it grin
For (chorus)

6)A brave man once requested me
To answer questions that are key
Is it to be or not to be
And I replied "Oh why ask me."
Cause (chorus)
And you can do the same thing if you please

--------------------------------------------------------------------------------
SUICIDE IS PAINLESS
(M. Altman, J.Mandel) (c) 1970

Em7 A7 D Bm
Through early morning fog I see / visions of the things to be
Em Asus A7 D Bm7 F#m7 B7
The pains that are with-held from me / I realize and I can see that

Em7 A7 D Bm7
Suicide is Painless, it brings on many changes
Gmaj7 D/F# Em A7 Bm
And I can take or leave it if I please

Try to find a way to make / all our little joys relate
Without that ever-present hate / and now I know that it's too late and...

The game of life is hard to play / I'm going to lose it anyway
The losing card I'll sometimes lay / so this is all I'm going to say
that...

The only way to win is cheat / and lay it down before I'm beat
And to another give a seat / for that's the only painless feat 'cause...

The sword of time will pierce our skins / it doesn't hurt when it begins
But as it works its way on in / the pain grows stronger -- watch it grin.
For...

A brave man once requested me / to answer questions that are key
Is it to be or not to be / and I replied, "Oh, why ask me?"
'cause...
Suicide is painless, it brings on many changes
And I can take or leave it if I please
And you can do the same thing if you please.

--------------------------------------------------------------------------------
Okay - here's my version of "Suicide is Painless". The sheet music I had
was arranged for piano - so the chords and tab are just guesses. The music
sounds right on piano, but I haven't tested it on guitar.



"Suicide is Painless"


E|-----------------------|-----------------
B|--------3--2-------0---|--------3--2-----
G|-----4-----------------|-----4-----------
D|--4--------------------|--4--------------
A|-----------------------|-----------------
E|-----------------------|-----------------
1 & 2 & 3 & 4 & 1 & 2 & 3 &

Em7 A7
Through early morning fog I see
D Bm
Visions of the things to be
Em A7sus4 A7
The pains that are withheld for me
D Bm7 F#m7/B B7
I realize and I can see that

Em7 A7
Chorus: Suicide is painless
D Bm7
It brings on many changes
Gmaj7 D/F# Em A7 Bm
And I can take or leave it if I please.

I try to find a way to make
All our little joys relate
Without that ever-present hate
But now I know that it's too late, and

(chorus)

The game of life is hard to play
I'm going to lose it anyway
The losing card I'll someday lay
And this is all I have to say, that

(chorus)

The only way to win is cheat
And lay it down before I'm beat
And to another give a seat
For that's the only painless feat, cause

(chorus)

The sword of time will pierce our skins
It doesn't hurt when it begins
But as it works its way on in
The pain grows stronger - watch it grin

(chorus)

A brave man once requested me
To answer questions that are key
Is it to be or not to be?
And I replied, "Oh why ask me?", cause

(chorus)

Gm7 D/F# Em7 A7 Bm
And you can do the same thing if you please.

ProTabs promo.jpg

Onbeperkt en gratis toegang tot alle 25.000
Tabs & Chords en direct meespelen met

Artiest Liedje

...

Gitaarakkoorden m*a*s*h*. - Suicide is painless

Dankzij de bladmuziek op deze pagina wordt het een stuk makkelijker om met de gitaar mee te spelen met Suicide is painless van m*a*s*h*. De ProTabs van Gitaartabs worden door onze professionele gitaardocenten samengesteld. De tabs en chords zijn door leden zelf geplaatst. Deze undefined van m*a*s*h*. met Suicide is painless is voor je geschreven door gitaartabs

Tabs & Chords van m*a*s*h*. - Suicide is painless

Bij de ProTabs delen we niet alleen de tablatuur maar ook de speelwijze van Suicide is painless Met een beetje gitaar ervaring moet je dit gitaarliedje zeker kunnen spelen, maar als het niet lukt zijn we er altijd om je te helpen. Door een gratis account aan te maken krijg je niet alleen toegang tot deze tab ,akkoorden & tabs van Suicide is painless maar kun je ook onbeperkt meespelen met een van de meer dan 25.000 andere tabs & chords in onze database.

Plaats opmerking

Beoordeel deze song

Rate UsDon’t love itNot greatGoodGreatLove itRate Us

Bedankt voor je beoordeling!