Master of puppets (intro)

Gitaarliedjes, tabs & akkoorden (chords) Master of puppets (intro) - metallica

Songtype: Tab

arrow&v

Markeer als favoriet

Favoriet

Gemarkeerd als favoriet

Capo:

0

metallica

metallica

Song
Album
Categorie

Master of puppets (intro)

Downloads
2282
Niveau
2

Geplaatst door
sander
ProTabs-promo.jpg

|--------------------------------------|
|--------------------------------------|
|---9--------7---6---5-------------|
|---9--------7---6---5-------------|
|---7--------5---4---3-------------|
|---0---------------------------------|

|--------------------------------------------------------------------------------------------|
|--------------------------------------------------------------------------------------------|
|--------------------------7---6---5------------------------------------------------------|
|--------------------------7---6---5------------------------------------------------------|
|---------7-----6--------5---4---3------------------------------------------------------|
|---0-0---0-0---0-0----------------------0-0-7-0-0-6-0-0-5-0-4-0-3-0-2--|

ProTabs promo.jpg

Onbeperkt en gratis toegang tot alle 25.000
Tabs & Chords en direct meespelen met

Artiest Liedje

...

Gitaarakkoorden metallica - Master of puppets (intro)

Dankzij de bladmuziek op deze pagina wordt het een stuk makkelijker om met de gitaar mee te spelen met Master of puppets (intro) van metallica De ProTabs van Gitaartabs worden door onze professionele gitaardocenten samengesteld. De tabs en chords zijn door leden zelf geplaatst. Deze undefined van metallica met Master of puppets (intro) is voor je geschreven door sander

Tabs & Chords van metallica - Master of puppets (intro)

Bij de ProTabs delen we niet alleen de tablatuur maar ook de speelwijze van Master of puppets (intro) Met een beetje gitaar ervaring moet je dit gitaarliedje zeker kunnen spelen, maar als het niet lukt zijn we er altijd om je te helpen. Door een gratis account aan te maken krijg je niet alleen toegang tot deze tab ,akkoorden & tabs van Master of puppets (intro) maar kun je ook onbeperkt meespelen met een van de meer dan 25.000 andere tabs & chords in onze database.

Plaats opmerking

Verstuur

Beoordeel deze song

Rate UsDon’t love itNot greatGoodGreatLove itRate Us

Bedankt voor je beoordeling!