Whiskey in the Jar

Gitaarliedjes, tabs & akkoorden (chords) Whiskey in the Jar - metallica

Songtype: Tab

arrow&v

Markeer als favoriet

Favoriet

Gemarkeerd als favoriet

Capo:

0

metallica

metallica

Song
Album
Categorie

Whiskey in the Jar

Downloads
3510
Niveau
10

Geplaatst door
CptCookiediet
ProTabs-promo.jpg

/ = slide up
\ = slide down
h = hammer on
p = pull off
b = bend
db/dfb = dubbele bend/dubbele full bend
fb = full bend
Fb = bend 1,5 noot omhoog
rb = bend meerdere malen herhalen. Het komt in dit nummer maar 1 keer voor, waarbij 4 herhalingen.
fbb = full bend, dan terug.
pm = palm mute

Stem gitaar naar DGCFAd


-----------------------------------------------------------------------------
-------------------------------8----------------------------8----------------
-----------------12\7-7-7h9h11---9h11-7-9/12--12\7-7-7h9h11---9h11-7-9/12fb--
-5--4--2-2--2-2--------------------------------------------------------------
-5--4--2-2--2-2--------------------------------------------------------------
-3--2--0-0--0-0--------------------------------------------------------------



-----------------------------------------------------------
---------------8----------------------------3--------------
-12\7-7-7h9h11---9h11-7-9/12--7\0--0--0h2h4---0h2-0-2/4-0--
-----------------------------------------------------------
-----------------------------------------------------------
-----------------------------------------------------------



||--------------------------------------------------------------------------------------------------
||--------------------------------------------------------------------------------------------------
||----------------------------------------------------------------------------------------------5---
||-5--5--x--5--5--5--x--5--5--5--x--5--5--5--5--2--2--2--x--2--2--2--x--2--2--2--x--2--2--2--2--5---
||-5--5--x--5--5--5--x--5--5--5--x--5--5--5--5--2--2--2--x--2--2--2--x--2--2--2--x--2--2--2--2--3---
||-3--3--x--3--3--3--x--3--3--3--x--3--3--3--3--0--0--0--x--0--0--0--x--0--0--0--x--0--0--0--0------



--------------------------------------------------------------------------------------------------
--------------------------------------------------------------------------------------------------
-5--5--x--5--5--5--x--5--5--5--x--5--5--5--x--5---------------------------------------------------
-5--5--x--5--5--5--x--5--5--5--x--5--5--5--x--5--5--5--x--5--5--5--x--5--5--5--x--5--5--5--5--5---
-3--3--x--3--3--3--x--3--3--3--x--3--3--3--x--3--5--5--x--5--5--5--x--5--5--5--x--5--5--5--5--5---
-------------------------------------------------3--3--x--3--3--3--x--3--3--3--x--3--3--3--3--3---



---------------------------------------------------------------------------------------------
---------------------------------------------------------------------------------------------
---------------------------------------------------------------------------------------------
-5--5--x--5--5--5--x--5--5--5--x--5--5----4----2--2--x--2--2--2--------2--2-----2--------2---
-5--5--x--5--5--5--x--5--5--5--x--5--5----4----2--2--x--2--2--2--------2--2-----2--------2---
-3--3--x--3--3--3--x--3--3--3--x--3--3----2----0--0--x--0--0--0--0--0--0--0--0--0--0--0--0---
pm pm pm pm pm


-------------------------------------------------------------------------**
-------------------------------------------------------------------------**
-5--5--x--5--5--5--x--5--5--5--x--5--5--5--x--5--------------------------**
-5--5--x--5--5--5--x--5--5--5--x--5--5--5--x--5--5--5--x--5--5--5--5--5--**
-3--3--x--3--3--3--x--3--3--3--x--3--3--3--x--3--5--5--x--5--5--5--5--5--**
-------------------------------------------------3--3--x--3--3--3--3--3--**



-----------------
-----------------
-----------------
-5--5--x--5--5---
-5--5--x--5--5---
-3--3--x--3--3---



--------------------------------------------------------------------------------------------------
---------------8----------------------------8------------------------------12------12-------------
-12\7-7-7h9h11---9h11-7-9/12--12\7-7-7h9h11---9h11-7-9/12fb--------12-14fb----14fb----14fbb14-12--
-------------------------------------------------------------12h14--------------------------------
--------------------------------------------------------------------------------------------------
--------------------------------------------------------------------------------------------------



------------------------------------------------
------------------------------3-----------------
-12h14p12--12--12\0--0--0h2h4----0h2p0-2fbb2-0--
------------------------------------------------
------------------------------------------------
------------------------------------------------

Herhaal het stuk || tot **, dan...


--------------------------------------------------------------------------
--------------------------------------------------------------------------
-------------------------7--7--7--7--7--7--7--7--7--7--7--7--7--6--6--5---
-5--5--x--5--5--5--5--5---------------------------------------------------
-5--5--x--5--5--5--5--5--5--5--5--5--5--5--5--5--5--5--5--5--5--4--4--3---
-3--3--x--3--3--3--3--3---------------------------------------------------
(is 13x)


---------------0-----3--0---------------------0----3--0---------------------------------------
--------3-1-------1-----------------1-3--1------1---------------------------------------------
------0-----0--------------0-0-0--0---------0-------------------------------------------------
----2----------------------------------------------------5--5--5--x--5--5--x--5--5--x--5--5---
-3-------------------------3-3-3-------------------------5--5--5--x--5--5--x--5--5--x--5--5---
---------------------------------------------------------3--3--3--x--3--3--x--3--3--x--3--3---



-------------------------------------------------------------
---------------8----------------------------8----------------
-12\7-7-7h9h11---9h11-7-9/12--12\7-7-7h9h11---9h11-7-9/12fb--
-------------------------------------------------------------
-------------------------------------------------------------
-------------------------------------------------------------



----------------------------------------------------------------------------
----------------------------------------------------------3-----------------
---------12-14fbb14-12--14--14fbb14-12h14-12-12\0-0-0h2h4---0-2-0-2dfbb2p0--
-9/12-14--------------------------------------------------------------------
----------------------------------------------------------------------------
----------------------------------------------------------------------------



---------------------------------------------------------------------
-8-----------------------------12h13-15-13-12h13p12-----12-----------
---9h11-7-9/12-12--12--12--12-----------------------14-----14-12-11--
---------------------------------------------------------------------
---------------------------------------------------------------------
---------------------------------------------------------------------



---------------------------------------------------------------------------------
-------12-13-13/15-------15-15/17--17-15-17-----17Fb 17Fbb17-15--17-15-17----15--
-12-14-------------14/16----------------------x---------------------------16-----
--------------------------------------------x------------------------------------
---------------------------------------------------------------------------------
---------------------------------------------------------------------------------



----------------------------------------------------
-15\13-12--------------13p12------------------------
----------14-12--------------14p12------------------
----------------15-14--------------15\14-12-10-9rb--
----------------------------------------------------
----------------------------------------------------



--------------------------------------------------------------------------
---------12-13-15-13-12h13p12----12-----------------12-13-13/15-------15--
-12----x----------------------14----14-12-11-12-14--------------14/16-----
-----x--------------------------------------------------------------------
--------------------------------------------------------------------------
--------------------------------------------------------------------------



-----------------------------------------------------------------------------------
-15/17--17-15-17-----17Fb-17Fbb17-15--17-15-17------15--15\13--12------------------
-------------------x----------------------------16-----------------14--12----------
-----------------x---------------------------------------------------------15--14--
-----------------------------------------------------------------------------------
-----------------------------------------------------------------------------------



-------------------------------------0---------------------------------------------
-------------12/13----13/15----15/17-0---------------------------------------------
----------12----------------------------10/12--12--12-12-----12--12--12-12-12------
-14-15-14----------14-------14----------10/12--12--12-12h14--12--10---9-10-10h12---
-----------------------------------------------------------------------------------
-----------------------------------------------------------------------------------



------------------------------------------------------------------------------------
------------------------------------------------------------------------------------
--------14fb-14fb-14fbb14p12----12h14p12-12----12-----------------------------------
-12h14-----------------------14-------------14----12--11--10--12-10-12/14-12-14/15--
------------------------------------------------------------------------------------
------------------------------------------------------------------------------------



---------------------------------------------------------------------------------------
----------------15/17------------------------------------------------------------------
----12----14-12--------12--12--12-----12--12--12-----12--------------------------------
-14----14---------------------------x-----14--12h14--12h14--14--14--14/17--17/19\17----
----------------------------------x----------------------------------------------------
---------------------------------------------------------------------------------------



---------------15h17p15h17p15----15--15\--------------------------------
--------15h17-----------------17-------------------------8--------------
----14-----------------------------------12\7--7--7h9h11---9h11-7-9/12--
-17---------------------------------------------------------------------
------------------------------------------------------------------------
------------------------------------------------------------------------



----------------------------------------------------------------------------------------------
-----------------------------8----------------------------------------------------------------
-12--12--12--12\7--7--7h9h11---9h11-7-9/12-12fb--12\---------12--14fb-14fb-14fb-14fbb-12h14---
-----------------------------------------------------9/12-14----------------------------------
----------------------------------------------------------------------------------------------
----------------------------------------------------------------------------------------------



--------------------------------------------------------------0-------------------------------
--------------------------------3-----------------------------0-------------------------------
-12--12--12--12--12\0--0--0h2h4---0h2-0-2dfb-0----------------0-------------------------------
--------------------------------------------------------------2-------------------------------
----------------------------------------------------------------------------------------------
----------------------------------------------------------------------------------------------



-------0------------------------------------------------3-----------------------------------
-------1------------------------------------------------3-----------------------------------
-------0------------------------------------------------0-----------------------------------
-------2------------------------------------------------0-----------------------------------
--------------------------------------------------------------------------------------------
--------------------------------------------------------------------------------------------



--------------------------------------------------------------------------------------
--------------------------------------------------------------------------------------
-7----7----7----7--7----7--7--7--7/9----9----9\--7/9--9--9\7--7\5--5----5----5----5---
--------------------------------------------------------------------------------------
-5----5----5----5--5----5--5--5--5/7----7----7\--5/7--7--7\5--5\3--3----3----3----3---
--------------------------------------------------------------------------------------



------------------------------------------------------------------------------------------
---------------------------------------------------------------------7--------------------
-4/5--5\4--4/5--5/7--5/7----7----7--7---7---7--7--7--7---------------7--------x--7--7--7--
---------------------------------------------------------7--7--7--7--7--7--7--x--7--7--7--
-2/3--3\2--2/3--3/5--3/5----5----5--5---5---5--5--5--5---5--5--5--5--5--5--5--x--5--5--5--
------------------------------------------------------------------------------------------



-----------------------------------0-----3--0--------------------------0-----3--0---
--------------------------3--1--------1--------------------1--3--1--------1---------
-7--7--7\6--6/5--------0--------0--------------0--0--0--0-----------0---------------
-7------------------2---------------------------------------------------------------
-5--5--5\4--4/3--3-----------------------------3--3--3------------------------------
------------------------------------------------------------------------------------



-----------------------------------------------------------------------------
---------------------------------------------------------8-------------------
-------------------------------------------12\7-7-7h9h11---9h11-7-9/12-------
-5--5--5----x--5--5----x--5--5----x--5--5------------------------------------
-5--5--5----x--5--5----x--5--5----x--5--5------------------------------------
-3--3--3----x--3--3----x--3--3----x--3--3------------------------------------



-----------------------------------------------------------------------------
-------------------8----------------------------------8----------------------
-12\--4/7-7-7h9h11---9h11-7-9/12dfb-----12\7-7-7h9h11---9h11-7-9/12--12------
-----------------------------------------------------------------------------
-----------------------------------------------------------------------------
-----------------------------------------------------------------------------



------------------------------------------------------------
-------------------------3----------------------------------
-12--12--12\0--0--0h2h4-----0h2--0-2fbb2p0---0--0--0-2-4----
------------------------------------------------------------
------------------------------------------------------------
------------------------------------------------------------


4x
----------------------------------------------------
-3------------------------3-------------------------
---4-2--2h4p2p0-0-4-0h2h4---0-2-2h4p2p0-0-2-0h2h4---
----------------------------------------------------
----------------------------------------------------
----------------------------------------------------



---------------------------
-3-------------------------
---0-2-2h4p2p0-0-2-2h4p2p0-
---------------------------
---------------------------
---------------------------

ProTabs promo.jpg

Onbeperkt en gratis toegang tot alle 25.000
Tabs & Chords en direct meespelen met

Artiest Liedje

...

Gitaarakkoorden metallica - Whiskey in the Jar

Dankzij de bladmuziek op deze pagina wordt het een stuk makkelijker om met de gitaar mee te spelen met Whiskey in the Jar van metallica De ProTabs van Gitaartabs worden door onze professionele gitaardocenten samengesteld. De tabs en chords zijn door leden zelf geplaatst. Deze undefined van metallica met Whiskey in the Jar is voor je geschreven door CptCookiediet

Tabs & Chords van metallica - Whiskey in the Jar

Bij de ProTabs delen we niet alleen de tablatuur maar ook de speelwijze van Whiskey in the Jar Met een beetje gitaar ervaring moet je dit gitaarliedje zeker kunnen spelen, maar als het niet lukt zijn we er altijd om je te helpen. Door een gratis account aan te maken krijg je niet alleen toegang tot deze tab ,akkoorden & tabs van Whiskey in the Jar maar kun je ook onbeperkt meespelen met een van de meer dan 25.000 andere tabs & chords in onze database.

Plaats opmerking

Verstuur

Beoordeel deze song

Rate UsDon’t love itNot greatGoodGreatLove itRate Us

Bedankt voor je beoordeling!