One (intro)

Gitaarliedjes, tabs & akkoorden (chords) One (intro) - metallica

Songtype: Tab

arrow&v

Markeer als favoriet

Favoriet

Gemarkeerd als favoriet

Capo:

0

metallica

metallica

Song
Album
Categorie

One (intro)

Downloads
3728
Niveau
2

Geplaatst door
ProTabs-promo.jpg

Intro (speel 2 keer)
e|-----------------------------------------------------------------------|
b|-----------------------------------------------------------------------|
g|--------------------------------------------------------------------0--|
D|----4-----0---------4-----0-----------4-----0-------------4-----0------|
A|-2-----2---------------------------2-----2-----------------------------|
E|----------------3-----3-------------------------------3-----3----------|


e|---------------------------------------------------------------------|
b|---------------------------------------------------------------------|
g|---------------------------------------------------------------------|
D|----4------0------------4-----0------------4-----0-------------------|
A|-2-----2------------0-----0---------------------------------2-----2--|
E|---------------------------------------3-----3-----------0-----2-----|

Intro solo
e|------------------------------------------------------------------------------|
B|--------------------------------------3p2-----3p2-----3-----3p2---------------|
G|-------------2---4b6b4--------------------4-------2-------------4-------------|
D|-----2h4----------------------------------------------------------------------|
A|------------------------------------------------------------------------------|
E|------------------------------------------------------------------------------|

e|----------------------------------------------------------------------------|
B|-----------------------------------------2h3-2~---------2-3p2---------------|
G|-11p9\7--9p7\6--7p6\4--6p4\2--/4~~---/4-------------/4------------2-/4~~----|
D|----------------------------------------------------------------------------|
A|----------------------------------------------------------------------------|
E|----------------------------------------------------------------------------|

e|-------14-19--17p15----15------|
B|----15--------------19----15~--|
G|-16----------------------------|
D|-------------------------------|
A|-------------------------------|
E|-------------------------------|

e|-------------------------------------------------------|
b|-------------------------------------------------------|
g|-7p6-7--9p7-9--11p9-11--/12-12-11----------------------|
D|-------------------------------------------------------|
A|-------------------------------------------------------|
E|-------------------------------------------------------|

ProTabs promo.jpg

Onbeperkt en gratis toegang tot alle 25.000
Tabs & Chords en direct meespelen met

Artiest Liedje

...

Gitaarakkoorden metallica - One (intro)

Dankzij de bladmuziek op deze pagina wordt het een stuk makkelijker om met de gitaar mee te spelen met One (intro) van metallica De ProTabs van Gitaartabs worden door onze professionele gitaardocenten samengesteld. De tabs en chords zijn door leden zelf geplaatst. Deze undefined van metallica met One (intro) is voor je geschreven door undefined

Tabs & Chords van metallica - One (intro)

Bij de ProTabs delen we niet alleen de tablatuur maar ook de speelwijze van One (intro) Met een beetje gitaar ervaring moet je dit gitaarliedje zeker kunnen spelen, maar als het niet lukt zijn we er altijd om je te helpen. Door een gratis account aan te maken krijg je niet alleen toegang tot deze tab ,akkoorden & tabs van One (intro) maar kun je ook onbeperkt meespelen met een van de meer dan 25.000 andere tabs & chords in onze database.

Plaats opmerking

Verstuur

Beoordeel deze song

Rate UsDon’t love itNot greatGoodGreatLove itRate Us

Bedankt voor je beoordeling!