Children of the grave

Gitaarliedjes, tabs & akkoorden (chords) Children of the grave - ozzy osbourne

Songtype: Tab

arrow&v

Markeer als favoriet

Favoriet

Gemarkeerd als favoriet

Capo:

0

ozzy osbourne

ozzy osbourne

Song
Album
Categorie

Children of the grave

Downloads
1511
Niveau
2
Geplaatst door
rick
ProTabs-promo.jpg

|-------x--------||-------------------------||
|-------x--------||o-----------------------o||
|-----------------||--6----------6-----------||
|------------x---||--6----------6-----------||
|------------x---||o-4--4-4-4-4-4--4-4-4-4-o||
|-----------------||-------------------------||


~~~~~~~~~~~
|--------------------------|--------------------|-------------------|
|--------------------------|--------------------|-------------------|
|-9-9-9-9-9-9-9-9-9-9-x-x-|--------------------|-------------------|
|-9-9-9-9-9-9-9-9-9-9-x-x-|-6------(6)---------|----------9---9---|
|-7-7-7-7-7-7-7-7-7-7-x-x-|-4------(4)---(4)---|-(4)------7---7---|
|--------------------------|--------------------|----------0--------|


|---------------------------------|
|---------------------------------|
|-2------(2)---(2)--------[9]b13==|
|-2------(2)---(2)------x---------|
|-0------(0)---(0)----x-----------|
|-------------------x-------------|


vragen suggesties of opmerkingen zet het er maar bij:P:D groet, rick

ProTabs promo.jpg

Onbeperkt en gratis toegang tot alle 25.000
Tabs & Chords en direct meespelen met

Artiest Liedje

...

Gitaarakkoorden ozzy osbourne - Children of the grave

Dankzij de bladmuziek op deze pagina wordt het een stuk makkelijker om met de gitaar mee te spelen met Children of the grave van ozzy osbourne De ProTabs van Gitaartabs worden door onze professionele gitaardocenten samengesteld. De tabs en chords zijn door leden zelf geplaatst. Deze undefined van ozzy osbourne met Children of the grave is voor je geschreven door rick

Tabs & Chords van ozzy osbourne - Children of the grave

Bij de ProTabs delen we niet alleen de tablatuur maar ook de speelwijze van Children of the grave Met een beetje gitaar ervaring moet je dit gitaarliedje zeker kunnen spelen, maar als het niet lukt zijn we er altijd om je te helpen. Door een gratis account aan te maken krijg je niet alleen toegang tot deze tab ,akkoorden & tabs van Children of the grave maar kun je ook onbeperkt meespelen met een van de meer dan 25.000 andere tabs & chords in onze database.

Plaats opmerking

Beoordeel deze song

Rate UsDon’t love itNot greatGoodGreatLove itRate Us

Bedankt voor je beoordeling!