Diary of a madman

Gitaarliedjes, tabs & akkoorden (chords) Diary of a madman - ozzy osbourne

Songtype: Tab

arrow&v

Markeer als favoriet

Favoriet

Gemarkeerd als favoriet

Capo:

0

ozzy osbourne

ozzy osbourne

Song
Album
Categorie

Diary of a madman

Downloads
1249
Niveau
2

Geplaatst door
rick
ProTabs-promo.jpg

Intro:

e----------0-------|---------0-------|---------5-------|---------5-------|
B--------4---4-----|-------4---4-----|-------4---4-----|-------3---3-----|
G------6-------6---|-----6-------6---|-----5-------5---|-----4-------4---|
D----7-----------7-|---5-----------5-|---4-----------4-|---3-----------3-|
A--0---------------|-0---------------|-0---------------|-0---------------|
E------------------|-----------------|-----------------|-----------------|


e----------0-------|---------0-------|---------0-------|---------0-------|
B--------2---2-----|-------1---1-----|-----1-----1---1-|-----3-----3---3-|
G------4-------4---|-----4-------4---|---4---4-----4---|---2---2-----2---|
D----2-----------2-|---2-----------2-|-----------------|-----------------|
A--0---------------|-0---------------|-----------------|-----------------|
E------------------|-----------------|-3---------------|-1---------------|


e------------------------0-----|
B------------------0---0-0-0-3-|
G------------1---1---1-------4-|
D------4---4---4---------------|
A----2---2---------------------|
E--0---------------------------|

ProTabs promo.jpg

Onbeperkt en gratis toegang tot alle 25.000
Tabs & Chords en direct meespelen met

Artiest Liedje

...

Gitaarakkoorden ozzy osbourne - Diary of a madman

Dankzij de bladmuziek op deze pagina wordt het een stuk makkelijker om met de gitaar mee te spelen met Diary of a madman van ozzy osbourne De ProTabs van Gitaartabs worden door onze professionele gitaardocenten samengesteld. De tabs en chords zijn door leden zelf geplaatst. Deze undefined van ozzy osbourne met Diary of a madman is voor je geschreven door rick

Tabs & Chords van ozzy osbourne - Diary of a madman

Bij de ProTabs delen we niet alleen de tablatuur maar ook de speelwijze van Diary of a madman Met een beetje gitaar ervaring moet je dit gitaarliedje zeker kunnen spelen, maar als het niet lukt zijn we er altijd om je te helpen. Door een gratis account aan te maken krijg je niet alleen toegang tot deze tab ,akkoorden & tabs van Diary of a madman maar kun je ook onbeperkt meespelen met een van de meer dan 25.000 andere tabs & chords in onze database.

Plaats opmerking

Verstuur

Beoordeel deze song

Rate UsDon’t love itNot greatGoodGreatLove itRate Us

Bedankt voor je beoordeling!