Message in a bottle

Gitaarliedjes, tabs & akkoorden (chords) Message in a bottle - police

Songtype: Tab

arrow&v

Markeer als favoriet

Favoriet

Gemarkeerd als favoriet

Capo:

0

police

police

Song
Album
Categorie

Message in a bottle

Downloads
179
Niveau
3
Geplaatst door
sander
ProTabs-promo.jpg

Intro + Verse
|---------------------------------------------------------|
|---------------------------------------------------------|
|------------8----------4-----------6------------------|
|--------6----------2-----------4---------------6s7--|
|----4----------0-----------2---------------4---------|
|------------------------------------------2-------------|

|------------------------------------------||
|--------------------------------7---9---||
|---6--6--6--6--6--6--6---7---9---||
|---7--7--7--7--7--7--7---7---9---||
|---7--7--7--7--7--7--7---5---7---||
|---5--5--5--5--5--5--5-------------||
I'll send an SOS to the world
I'll send an SOS to the world

|--------------------------------------------------------------------|
|-----------------------------------7--7--7--7--7--7--7--7---|
|---3--3--3--3--3--3--3--3--7--7--7--7--7--7--7--7---|
|---4--4--4--4--4--4--4--4--7--7--7--7--7--7--7--7---|
|---4--4--4--4--4--4--4--4--5--5--5--5--5--5--5--5---|
|---2--2--2--2--2--2--2--2-----------------------------------|
I hope that someone gets my
I hope that someone gets my
I hope that someone gets my

|---4----5----4----5----4----5----2-|
|---5----5----5----5----5----5----2-|
|---6----6----6----6----6----6----3-|
|---6----7----6----7----6----7----4-|
|---4----7----4----7----4----7----4-|
|---------5----------5----------5----2-|
Message in the bottle, Message in the bottle

ProTabs promo.jpg

Onbeperkt en gratis toegang tot alle 25.000
Tabs & Chords en direct meespelen met

Artiest Liedje

...

Gitaarakkoorden police - Message in a bottle

Dankzij de bladmuziek op deze pagina wordt het een stuk makkelijker om met de gitaar mee te spelen met Message in a bottle van police De ProTabs van Gitaartabs worden door onze professionele gitaardocenten samengesteld. De tabs en chords zijn door leden zelf geplaatst. Deze undefined van police met Message in a bottle is voor je geschreven door sander

Tabs & Chords van police - Message in a bottle

Bij de ProTabs delen we niet alleen de tablatuur maar ook de speelwijze van Message in a bottle Met een beetje gitaar ervaring moet je dit gitaarliedje zeker kunnen spelen, maar als het niet lukt zijn we er altijd om je te helpen. Door een gratis account aan te maken krijg je niet alleen toegang tot deze tab ,akkoorden & tabs van Message in a bottle maar kun je ook onbeperkt meespelen met een van de meer dan 25.000 andere tabs & chords in onze database.

Plaats opmerking

Beoordeel deze song

Rate UsDon’t love itNot greatGoodGreatLove itRate Us

Bedankt voor je beoordeling!