Smoothly

Gitaarliedjes, tabs & akkoorden (chords) Smoothly - Racoon

Songtype: Tab

arrow&v

Markeer als favoriet

Favoriet

Gemarkeerd als favoriet

Capo:

0

Racoon

Racoon

Song
Album
Categorie

Smoothly

Downloads
2626
Niveau
3

Geplaatst door
rick
ProTabs-promo.jpg

Akkoordschema]:
Em :022000
C :x32010
Am :x02210
A :x02220
G :320033
D :xx0232
Eb :x68886
Bb :x13331
Fadd9 :x-8-10-10-8-8
Emin7 :x-7-9-7-8-10

6/8 maat
-------------
fingerpicking

Riff 1 (“Verses” + “Intro”):
Em C Em C
Eb|--------3p0------------|--------3p0-------3----|
Bb|--3h5-------3---1-0----|--3h5-------3---1---1--|
Gb|--------------0-----2--|0-------------0--------|
Db|-----------------------|-----------------------|
Ab|------------3-----3---3|------------3-----3---3|
Eb|--0--------------------|--0--------------------|
Em C Am G
Eb|--------3p0------------|--------3p0-------3----|
Bb|--3h5-------3---1-0----|--3h5-------3---1---1--|
Gb|--------------0-----2--|--------------0--------|
Db|-----------------------|-----------------------|
Ab|------------3-----3---3|--0--------------------|
Eb|--0--------------------|------------3-----3---3|

Riff 2 (“Chorus”):”
Bm C Emin7 D
Eb|------3-----0----------|------7-----------5----|
Bb|--3-----------1---1----|--8---------7---7---7--|
Gb|----0-----------0------|----0---------7--------|
Db|-----------------------|-----------------------|
Ab|--2---------3----------|--7---------5----------|
Eb|-----------------------|-----------------------|

Bm C Bb A
Eb|------3-----0----------|----------------0------|
Bb|--3-----------1---1----|--3---2-----2h3--------|
Gb|----0-----------0----0-|----0---0--------------|
Db|-----------------------|-----------------------|
Ab|--2---------3----------|--1---0-----0----------|
Eb|-----------------------|-----------------------|


Riff 3 (“bridge”):
Fadd9 Emin7 Eb D
Eb|------10--------10-----|------8----------------|
Bb|--8---------8----------|--8-----8---7--- 7h8p7-|
Gb|----0---0-----0---0----|----0-----------7-----7|
Db|-----------------------|------------0-0--------|
Ab|--8-------8-7-------7--|--6-------6------------|
Eb|-----------------------|-----------------------|

Fadd9 Emin7 Eb D
Eb|------10--------10-----|------8---------------5|
Bb|--8---------8----------|--8-----8---8-----7h8--|
Gb|----0---0-----0---0----|----0-----------7------|
Db|-----------------------|------------0-0--------|
Ab|--8-------8-7-------7--|--6-------6------------|
Eb|-----------------------|-----------------------|

Fadd9 Emin7 Eb D
Eb|------10--------10-----|------8----------------|
Bb|--8---------8----------|--8-----8---7--- 7h8p7-|
Gb|----0---0-----0---0----|----0-----------7-----7|
Db|-----------------------|------------0-0--------|
Ab|--8-------8-7-------7--|--6-------6------------|
Eb|-----------------------|-----------------------|

Fadd9 Emin7 Eb D
Eb|------10--------10-----|------------------5----|
Bb|--8---------8----------|--8---/10---7---7---7--|
Gb|----0---0-----0---0----|--8---/10---7-7--------|
Db|-----------------------|------------0----------|
Ab|--8-------8-7-------7--|--6---/8---------------|
Eb|-----------------------|-----------------------|

Eb Eb C B
Eb|-----------------------|--0--------------------|
Bb|--8-----------/10-8---7|----1-4----------------|
Gb|------8-------/10---8--|--------4--------------|
Db|-----------------------|-----------------------|
Ab|--6-----6-----/8--6----|--3---2----------------|
Eb|-----------------------|-----------------------|

Verse 1: (Riff 1)
G Em C Em C
So much difference now, the feeling`s letting down.
Em C Am G
I have a notion of where I am although I`m scared some how.
Em C Em C
Not just a dropping in, more a dropping out.
Em C Am G
It fell so loud that I found out I always done without.

I dreamt nothing was wrong, everything just smiled.
In this worthwhile dream of mine a beauty place combined.
I saw eagles fly, a grey sky open up,
a star explode and others float between the mountaintops.

(Pre)Chorus:
Bm C Emin7 D
She said: `That`s another kind of magic,
Bm C Bb A Em C Em C Em C A G
I swear, things go smoothly, pretty smooth down here`.

Verse 2: (Riff 1)
I guess it`s up to me. Somewhere hid away there`s a cure,
but I ain`t sure whether it`s mine to pay.
Because all the time I tried to give my dreams a life.
Every time that I woke up I simply closed my eyes.

Chorus: (Chords + Riff 1)
Bm C Emin7 D
She said: `That`s another kind of magic,
Bm C Bb A
I swear, things go smoothly`.
Bm C Emin7 D
She said: `Man I promise you it gets better,

Bridge: (Riff 3)
Bm C Fadd9 Ein7 Eb D
we`re there...`
Fadd9 Emin7 Eb D Fadd9 Emin7 Eb D
Futile dreams and reasons floating in the air.
D Eb D C Bb
I stay silent. And I gave up to try and walk on water.

Verse 3: (Riff 1)
For you, for you, so smooth...
I feel weary now, shaky in the gut.
And what if I woke up
and saw that dreams is all I got.

I guess I`d laugh at life,
sneaky in the hand.
Because it`s a bitch to find out things
ain`t going as you planned.

Chorus: (Riff 2 [x7] + Riffs)
Bm C Em D
But she said: `That`s another kind of magic,
Bm C Bb A
I swear, things go smoothly.
Bm C Em D Bm C Bb
She said: `Man I promise its gets better, we`re there.
A
Well, that’s what she promised
Bm C Em D
She said: `Are you willing to look the other way.
Bm C G D
She said: `Are you willing to take chances`.
Bm C G D
I said: `It`s best if you just walk away`.

Riff 5 (“Outro”):
C A Asus4
E|-----------------0-----|-------------------0---|
B|--3-----3-----3--------|--2-----2-----2h3------|
G|-----0-----0-----------|-----2-----2-----------|
D|-----------------------|-----------------------|
A|--1--------------------|--0--------------------|
E|-----------------------|-----------------------|
She said: `Your life is short and meaningless,
unless you make the best of it`.

ProTabs promo.jpg

Onbeperkt en gratis toegang tot alle 25.000
Tabs & Chords en direct meespelen met

Artiest Liedje

...

Gitaarakkoorden Racoon - Smoothly

Dankzij de bladmuziek op deze pagina wordt het een stuk makkelijker om met de gitaar mee te spelen met Smoothly van Racoon De ProTabs van Gitaartabs worden door onze professionele gitaardocenten samengesteld. De tabs en chords zijn door leden zelf geplaatst. Deze undefined van Racoon met Smoothly is voor je geschreven door rick

Tabs & Chords van Racoon - Smoothly

Bij de ProTabs delen we niet alleen de tablatuur maar ook de speelwijze van Smoothly Met een beetje gitaar ervaring moet je dit gitaarliedje zeker kunnen spelen, maar als het niet lukt zijn we er altijd om je te helpen. Door een gratis account aan te maken krijg je niet alleen toegang tot deze tab ,akkoorden & tabs van Smoothly maar kun je ook onbeperkt meespelen met een van de meer dan 25.000 andere tabs & chords in onze database.

Plaats opmerking

Verstuur

Beoordeel deze song

Rate UsDon’t love itNot greatGoodGreatLove itRate Us

Bedankt voor je beoordeling!