I could have a lied

Gitaarliedjes, tabs & akkoorden (chords) I could have a lied - red hot chili peppers

Songtype: Tab

arrow&v

Markeer als favoriet

Favoriet

Gemarkeerd als favoriet

Capo:

0

red hot chili peppers

red hot chili peppers

Song
Album
Categorie

I could have a lied

blood sugar sex magic

Downloads
701
Niveau
2
Geplaatst door
joost
ProTabs-promo.jpg

A : 5-7-7-6-5-5
Bm : x-2-4-4-3-2
C : 8-10-10-9-8-8
D : x-5-7-7-7-5
Em : x-7-9-9-8-7
G : 3-5-5-4-3-3
G* : x-10-12-12-12-10

H : hammer on
P : pull off
B : bend
/ : slide up
x : mute
… : door laten klinken

Intro:

Bm A G
E|-----------------------------------------------------|
B|-----------------------------------------------------|
G|-----------------------------------------------------|
D|-----0---4-----0---4-----0---4/(7)-7---5---4---------|
A|-0h2---2-----2---2-----2---2-------0-----------5-----|
E|-------------------------------------------3-------3-|

Bm A G
E|-----------------------------------------------------|
B|-----------------------------------------------------|
G|-----------------------------------------------------|
D|-----0---4-----0---4-----0---4/(7)-7---5---4---------|
A|-0h2---2-----2---2-----2---2-------0-----------5-----|
E|-------------------------------------------3-------3-|



Bm
There must be something in the way I feel
A G Bm A G
That she don’t want me to feel…
Bm (Fill 1)
The stare she bares cut me
A G
I don’t care
Bm A G
You see so what if I bleed…

Fill 1
E|---------|
B|--2h3p2--|
G|---------|
D|---------|
A|---------|
E|---------|

Bm D
I could never change what I feel
A G Bm A G
My face could never show what is not reeeal…

Bm A G
E|-----------------------------------------------------|
B|-----------------------------------------------------|
G|-----------------------------------------------------|
D|-----0---4-----0---4-----0---4/(7)-7---5---4---------|
A|-0h2---2-----2---2-----2---2-------0-----------5-----|
E|-------------------------------------------3-------3-| (2 x)

Bm
A mountain never seems to have the need to speak
A G Bm A G
A look that shares so many seek…
Bm
The sweetest feelings I got for you
A G Bm A G
The things I said to you were true…


Bm D
I could never change what I feel
A G Bm A G
My face could never show what is not reeeal…

Bm A G
E|-----------------------------------------------------|
B|-----------------------------------------------------|
G|-----------------------------------------------------|
D|-----0---4-----0---4-----0---4/(7)-7---5---4---------|
A|-0h2---2-----2---2-----2---2-------0-----------5-----|
E|-------------------------------------------3-------3-|


Em G*
I could have lied I’m such a fool
D C
My eyes could never never never keep their cool
Em G*
Showed her and I told her now
D C
She struck me but I’m fucked up now


Solo 1:

E|-------------------------------------------------------------|
B|---------------------------------------------7--7--7-7-7---7-|
G|-------------------------------------------7-------------9---|
D|--------------------7--9b~~~9r-----------9-------------------|
A|---------5-----7/9--------------10----10---------------------|
E|-/7----------------------------------------------------------|

E|-------------------------------------------------------------|
B|--7---7-10---8---7---------------------x------7-7----7-7-----|
G|----9------------------7----7-7-9-7-9p7--x-9b-----9b-----9b--|
D|-------------------------------------------------------------|
A|-------------------------------------------------------------|
E|-------------------------------------------------------------|

E|--7---------7------------------------------------------------|
B|7---7-10b-----10---7-10-10p7--7h10p7---------------------8-7-|
G|------------------------------------9-7-7h9p7----------------|
D|----------------------------------------------9-7-9--9-9-----|
A|-------------------------------------------------------------|
E|-------------------------------------------------------------|

E|-------------------------------------------------------------|
B|7h8p7--------7------------------------------------------1517b|
G|------7------7--7----------------------------------14/16-----|
D|--------9-9-------9-9--9-7-9----------------1214/16----------|
A|------------------------------9----10---9/14-----------------|
E|-------------------------------------------------------------|

E|-------------17---15-14-------------------------------------|
B|-------------------------15---------------------7------------|
G|----------------------------14----------7-9-7-9-9b~~~~~~~~~r-|
D|-------------------------------1412-------------------------|
A|-------------------------------------------------------------|
E|-------------------------------------------------------------|

E|-----------------------------|
B|-----------------------------|
G|-----------------------------|
D|-7h9---7-7/95~~~~4/542p0-|
A|-----------------------------|
E|-----------------------------|

Bm
But now she’s gone, yes she’s gone away
A G Bm A G
A soulful song that would not stay…
Bm
You see she hides cause she is scared
A G Bm A G
But I don’t care I won’t be spared…

Em G*
I could have lied I’m such a fool
D C
My eyes could never never never keep their cool
Em G*
Showed her and I told her now
D C
She struck me but I’m fucked up now


Solo 2:

E|-0----------------------------------------------------------------------|
B|---/12----12----15-12---------------------------------------------------|
G|-------14----14-------14---14-12-14-12-14b-14b-14-12-12--14-12-14-12----|
D|---------------------------------------------------------------------14-|
A|------------------------------------------------------------------------|
E|------------------------------------------------------------------------|

E|------------------------------------------------------------------------|
B|--------------------------------------12--------------12-15-12-15-12----|
G|-------------------------------12-14b----14b-12----12-------------------|
D|--14-14-12-14-12-14-12-14---14------------------14----------------------|
A|------------------------------------------------------------------------|
E|------------------------------------------------------------------------|

E|------------------------------------------------------------------------|
B|--12--------------------------------------------------------------------|
G|-----14-12-14b-14b-14--12-14-12-/14-12---11-12-11-/12-11-----7----------|
D|-----------------------------------------------------------9---9-9------|
A|------------------------------------------------------------------------|
G|------------------------------------------------------------------------|

e|------------------------------------------------------------------------|
B|-------------3-------------------------------------------12…------------|
G|----0-2--2b4---4-2-0-2p0-2p0-----------------------------12…------------|
D|--2--------------------------2----------2-2-14--14-14-14-14…------------|
A|------------------------------------------------------------------------|
E|------------------------------------------------------------------------|

ProTabs promo.jpg

Onbeperkt en gratis toegang tot alle 25.000
Tabs & Chords en direct meespelen met

Artiest Liedje

...

Gitaarakkoorden red hot chili peppers - I could have a lied

Dankzij de bladmuziek op deze pagina wordt het een stuk makkelijker om met de gitaar mee te spelen met I could have a lied van red hot chili peppers De ProTabs van Gitaartabs worden door onze professionele gitaardocenten samengesteld. De tabs en chords zijn door leden zelf geplaatst. Deze undefined van red hot chili peppers met I could have a lied is voor je geschreven door joost

Tabs & Chords van red hot chili peppers - I could have a lied

Bij de ProTabs delen we niet alleen de tablatuur maar ook de speelwijze van I could have a lied Met een beetje gitaar ervaring moet je dit gitaarliedje zeker kunnen spelen, maar als het niet lukt zijn we er altijd om je te helpen. Door een gratis account aan te maken krijg je niet alleen toegang tot deze tab ,akkoorden & tabs van I could have a lied maar kun je ook onbeperkt meespelen met een van de meer dan 25.000 andere tabs & chords in onze database.

Plaats opmerking

Beoordeel deze song

Rate UsDon’t love itNot greatGoodGreatLove itRate Us

Bedankt voor je beoordeling!