Aerials (main guitar part)

Gitaarliedjes, tabs & akkoorden (chords) Aerials (main guitar part) - system of a down

Songtype: Tab

arrow&v

Markeer als favoriet

Favoriet

Gemarkeerd als favoriet

Capo:

0

system of a down

system of a down

Song
Album
Categorie

Aerials (main guitar part)

Downloads
139
Niveau
2

Geplaatst door
gitaartabs
ProTabs-promo.jpg

e|------------------------------------------------------------------------------|
B|------------------------------------------------------------------------------|
G|------------------------------------------------------------------------------|
D|----0------0------0-----0-----0---------0-----0----0-----0------0---|
A|--0------0-----0-----0-----0---------0-----0----0-----0-----0-------|
E|3-----2-----0-----0-----0-----0---5-----3----2-----2-----2------2-|


e|------------------------------------------------------------------------------|
B|------------------------------------------------------------------------------|
G|------------------------------------------------------------------------------|
D|----0----0-----0-----0-----0-----0------0-----0-----0-----0-----0--|
A|--0----0-----0-----0-----0-----0-----0-----0-----0------0-----0----|
E|3----5-----7-----8-----7----5-----3-----2-----0------0-----0-------|

e|------------------------------------------------------------------------------|
B|------------------------------------------------------------------------------|
G|------------------------------------------------------------------------------|
D|-------0---------0-----0-----0-----0--------0--------0-----0-----0---|
A|----0---------0-----0-----0-----0---------0-------0-----0-----0------|
E|12------10-----7-----7-----7-----7/14-----10-----7-----7---------|

e|-------------------------------------------------------------------------------------|
B|-------------------------------------------------------------------------------------|
G|------------------------------------------------------------------------------------|
D|------0---------0-------0-------0-------0------0--------0-----0---------0---|
A|---0---------0-------0--------0-------0------0-------0-----0---------0------|
E|7-----7/12-----14-----15-----17-----15-----14---12---12/10------|


Tekst:
Life is a waterfall
Were one in the river
And one again after the fall
Swimming through the void
We hear the word
We lose ourselves
But we find it all....
Cause we are the ones that want to play
Always want to go
But you never want to stay
And we are the ones that want to choose
Always want to play
But you never want to lose
Aerials, in the sky
When you lose small mind
You free your life
Life is a waterfall
We drink from the river
Then we turn around and put up our walls
Swimming through the void
We hear the word
We lose ourselves
But we find it all...
Cause we are the ones that want to play
Always want to go
But you never want to stay
And we are the ones that want to choose
Always want to play
But you never want to lose
Aerials, in the sky
When you lose small mind
You free your life
Aerials, so up high
When you free your eyes eternal prize
Aerials, in the sky
When you lose small mind
You free your life
Aerials, so up high
When you free your eyes eternal prize

ProTabs promo.jpg

Onbeperkt en gratis toegang tot alle 25.000
Tabs & Chords en direct meespelen met

Artiest Liedje

...

Gitaarakkoorden system of a down - Aerials (main guitar part)

Dankzij de bladmuziek op deze pagina wordt het een stuk makkelijker om met de gitaar mee te spelen met Aerials (main guitar part) van system of a down De ProTabs van Gitaartabs worden door onze professionele gitaardocenten samengesteld. De tabs en chords zijn door leden zelf geplaatst. Deze undefined van system of a down met Aerials (main guitar part) is voor je geschreven door gitaartabs

Tabs & Chords van system of a down - Aerials (main guitar part)

Bij de ProTabs delen we niet alleen de tablatuur maar ook de speelwijze van Aerials (main guitar part) Met een beetje gitaar ervaring moet je dit gitaarliedje zeker kunnen spelen, maar als het niet lukt zijn we er altijd om je te helpen. Door een gratis account aan te maken krijg je niet alleen toegang tot deze tab ,akkoorden & tabs van Aerials (main guitar part) maar kun je ook onbeperkt meespelen met een van de meer dan 25.000 andere tabs & chords in onze database.

Plaats opmerking

Verstuur

Beoordeel deze song

Rate UsDon’t love itNot greatGoodGreatLove itRate Us

Bedankt voor je beoordeling!