Under the surface

Gitaarliedjes, tabs & akkoorden (chords) Under the surface - the beatles

Songtype: Tab

arrow&v

Markeer als favoriet

Favoriet

Gemarkeerd als favoriet

Capo:

0

the beatles

the beatles

Song
Album
Categorie

Under the surface

Downloads
722
Niveau
2
Geplaatst door
menno luitjes
ProTabs-promo.jpg

Under The Surface


THIS FIGURE IS PLAYED THROUGHOUT MOST OF THE SONG:

(Not an exact replica, but it sounds okay...)

e|--------2-----2---+-----3---2-------+-------3-----3---+---------3-2-0-2--
B|----------2-------+-------3---3-----+---------1-------+-----3------------
G|------------0---0-+-2-2---------2---+-----0-----0---0-+-2-2---2----------
D|------0-----------+---------------0-+---2-------------+------------------
A|----2-------------+-----------------+-3---------------+------------------
E|--3---------------+-----------------+-----------------+------------------
(G/D) (D, Dsus2, Dsus4) (Ci) (D, Dsus2, Dsus4)
^^^^^^^^^^
(??)

Je kan ook een normale G pakken als volgt

e-3-
B-3-
G-0-
D-0-
A-2-
E-3-

e|--------3-----3---+-----3---2-------+-------3-----3---+---------3-2-0-2--
B|----------3-------+-------3---3-----+---------1-------+-----3------------
G|------------0---0-+-2-2---------2---+-----0-----0---0-+-2-2---2----------
D|------0-----------+---------------0-+---2-------------+------------------
A|----2-------------+-----------------+-3---------------+------------------
E|--3---------------+-----------------+-----------------+------------------

Die riff, nou probeer dit eens. Klopt niet helemaal, maar klinkt wel... ;-)

Riff.1
e|-----5--7--5----5-+-------------------------------
B|--8-----------8---+-5--7-8--7------------8----(8)-
G|------------------+-----------7---------7--(7)----
D|------------------+-------------7-7-5-5-----------
A|------------------+-------------------------------
E|------------------+-------------------------------

Riff.2
e|-8-7------------+------------------
B|-----7----------+------------------
G|----------------+------------------
D|----------------+------------------
A|----------------+------------------
E|----------------+------------------

Riff.3 ( s- slide, h - hammeron)
e|--------------------------------------------------------------------------
B|--------------------------------------------------------------------------
G|---5---5-7---7-7-7-5---5---5-7s9-7-5----5---5-7--5h7-5h7-5h7-7-5---5---5-7
D|-7---7---------------7---7------------7---7----------------------7---7----
A|--------------------------------------------------------------------------
E|--------------------------------------------------------------------------

NOW TRY TO FIGURE THE SOLO OUT YOURSELF AND ASK SOMEBODY ELSE TO PLAY
THE PLAIN CHORDS ON TOP OF fig1...

(Or when you want to keep this beautiful song to yourself, play fig1 only
once (as intro) and do the rest, using Dsus2, Dsus4 and Ci like in fig1)
^^^^^^^^^^^^^
(??)



(Here's what i could make of the...)
LYRICS:
-------
Riff.1 (2x)

G D C D G
You could travel for a lifetime, and still stay where you are

You could wait until the right time,

Riff.2 (3x)
It's soft?? to make'em all
~~~~~~~ Weet ik niet :-)

G D C D C
D
People tell you what they know, mostly wrong from ..........
~~~~~~~~~~~~

D G D C D
It's under the surface, and it's up in the sky

D G D C D
That's why you won't reach it, so don't even try

D C D G
Don't even try


G D C D G


G D C D G
The lines are old yet still not weakened, you don't know what to do
~~~~~~~~gecorrigeerd ;-)
Cause everyone else around is sleeping,
The choice is up to you

Now you better watch out what you're saying,
These words can kill like swords

You better watch out while you're praying,
Riff.2 (3x)
And of what you're praying for


People tell you what they know,
Mostly wrong from ..........


Cause it's under the surface,
And it's up in the sky

That's why you won't reach it,
So don't even try

Don't even try


D - C

D - C

Riff.3
C D C D
It's so unexpected, and how can it be true

We never will detect it,
...... for you
^^^^^^^ If it hadn't been for you (haven't been ?)

Now i got this notion,
Of bottled?? up inside
^^^^^^^^^^^^ my love? , fine love?

The swallowed of emotion,
^^^^^^^^^swell
there's no need to hide


D G D C D
It's under the surface, and it's up in the sky

D G D C D
That's why you won't reach it, so don't even try

Riff.1 (2x)

G D C D G

G D C D G


Now you better watch out what you're saying,
These words can kill like swords

You better watch out while you are praying,
And of?? what you're praying for
^^^ das goed volgens mij ;-)


G D C D
It's under the surface, and it's up in the sky

G D C D
That's why you won't reach it, so don't even try

D C
Don't even try



---------------------------------------------------------------------------


G (G/D) - 320022
C (Ci) - x32011
D - xx0232
Dsus2 - xx0230 (??) voor zover ik weet kloppen de Dsus2 en de Dsus4...
Dsus4 - xx0233 (??)


----- Balentine !!!!!!!!!!!!!!!!!!!!!!!!!!!!!!!!!!!!!!



BETTIE SERVEERT - Balentine (from Palomine)
---------------------------------------------------------------------------
TAB done by Menno Luitjes, 11-06-1994

LET'S START WITH SOME FIGURES...

| | | | | |
| Am | A7 | C7 |C| C7 |
e|--------0-0---+--------0---0----[INTRO]
B|-------1---0--+-------0-{1}-0---
G|------2-------+------0----------
D|-----2--------+----2------------
A|--0-----------+--3--------------
E|--------------+-----------------
(play 4 times)

e|-(0)--0-0-0-0-0-0-0-0-0-0-0-0-0-0---[FIG1a]
B|-(1)--1-0-1-0-1-0-1-0-1-0-1-0-1-0---
G|-(2)--2-2-2-2-2-2-2-2-2-2-2-2-2-2---
D|--2---2-2-2-2-2-2-2-2-2-2-2-2-2-2---
A|--0--(0)--------(.....)--------(0)--
E|------------------------------------
Balentine, If we could..

e|--2-2------2--[FIG1b]
B|--2-2------2--
G|--0-0------0--
D|--0-0------0--
A|--2-2------2--
E|--3-3-(..)-3--
..turn back the time. We would have..

e|--0---0-0-0-0--[FIG1c]
B|--1---0-1-0-1--
G|--2---2-2-2-2--
D|--2---2-2-2-2--
A|--0--(0-...-0)-
E|---------------
..made the same mis-

e|--2--2--2--2-2-2--x-------------[FIG1d]
B|--2--2--2--2-2-2--x-------------
G|--0--0--0--0-0-0--x--(silence)--
D|--0--0--0--0-0-0--x-------------
A|--2--2--2--2-2-2--x-------------
E|--3--3--3--3-3-3--x-------------
-take, All over again

e|--0--0--0-0-0-0-0--0-(0)--[FIG2]
B|--1--1--1-1-1-1-1--1-(0)--
G|--2--2--0-0-0-0-0--0-(0)--
D|--2--2--2-2-2-2-2--2-(0)--
A|--0--0--3-3-3-3-3--3-(0)--
E|--------------------------
(play repeatedly)

LYRICS:
-------

[intro]

[fig1]:
Am
Balentine,

Am G
If we could turn back the time.

G Am G
We would have made the same mistake,

(silence) [fig2]
All over again.

Balentine
If we could turn back the time
We would have made the same mistake
All over again

[fig2]
-BREAK-

Am
Balentine

Am G
Well it could all turn out fine


G C ?C? ?A?
^^^ E ^^^ F
If you would try to understand what's on my mind

C ?A? <- F
Oh Balentine

C ?A? <- F
My dearest Valentine

C G [fig2]
And i could learn a lot from you

C G [fig2]
Cause no-one comes as near as you

C [fig1d] [fig2]
And i don't really.. ..want them to

Balentine
If we could turn back the time
We would have made the same mistake
All over again

Balentine
We'll it hurts me sometimes
To think that you and i have wasted all this time
Oh Balentine
My dearest Valentine

And i could learn a lot from you
Cause no-one does the things you do
And i don't really want them to

[fig2]
-SOLO-
(end on Am)

---------------------------------------------------------------------------



{1} - just put your finger on the 1st fret without hitting the string
(0) - additional note
(..) - didn't feel like typing the same thing over and over again...

G (G/D) - 320022 ???, is dat niet 220023 ?
C - x32010
C7 (?) - x32000 Dat is een Cmaj7
Am - x02210
A7 (?) - x02200 Heheh, dat is een Esus4, ga maar na, een Esus4 is :
002220 die laatste 2, das de B. Die eerste 0 bij jou
is ook een B, dus een Esus4.

ProTabs promo.jpg

Onbeperkt en gratis toegang tot alle 25.000
Tabs & Chords en direct meespelen met

Artiest Liedje

...

Gitaarakkoorden the beatles - Under the surface

Dankzij de bladmuziek op deze pagina wordt het een stuk makkelijker om met de gitaar mee te spelen met Under the surface van the beatles De ProTabs van Gitaartabs worden door onze professionele gitaardocenten samengesteld. De tabs en chords zijn door leden zelf geplaatst. Deze undefined van the beatles met Under the surface is voor je geschreven door menno luitjes

Tabs & Chords van the beatles - Under the surface

Bij de ProTabs delen we niet alleen de tablatuur maar ook de speelwijze van Under the surface Met een beetje gitaar ervaring moet je dit gitaarliedje zeker kunnen spelen, maar als het niet lukt zijn we er altijd om je te helpen. Door een gratis account aan te maken krijg je niet alleen toegang tot deze tab ,akkoorden & tabs van Under the surface maar kun je ook onbeperkt meespelen met een van de meer dan 25.000 andere tabs & chords in onze database.

Plaats opmerking

Beoordeel deze song

Rate UsDon’t love itNot greatGoodGreatLove itRate Us

Bedankt voor je beoordeling!