top of page

Nvpc12

Gitaarliedjes, tabs & akkoorden (chords) Nvpc12 - vader jacob

Songtype: Tab

arrow&v

Markeer als favoriet

Gemarkeerd als favoriet

Capo:

0

vader jacob

vader jacob

Song
Album
Categorie

Nvpc12

Downloads
1979
Niveau
2
vader jacob

Geplaatst door
nvpc12
ProTabs-promo.jpg



e--------------------------/---------------------
a------0----------0--------/---0--1--3---0--1--3-
d--0-2---0----0-2---0------/---------------------
g--------------------------/---------------------
b--------------------------/---------------------
e--------------------------/---------------------
Vader Jacob Vader Jacob slaapt gij nog? 2x

e-----------------------/------------------------
a-----------------------/------------------------
d--3--4--3--1--0--------/--3--4--3--1--0---------
g-----------------0-----/-----------------0------
b-----------------------/------------------------
e-----------------------/------------------------
alle klokken luiden alle klokken luiden

e------------------------------------------------
a------------------------------------------------
d------------------------------------------------
g---5--0--5------5--0--5-------------------------
b------------------------------------------------
e------------------------------------------------
Bim bam bom, bim bam bom.

ProTabs promo.jpg

Onbeperkt toegang tot alle 25.000
Liedjes & ProTabs! Speel direct mee met

Artiest Liedje

of

... laden actie pagina

...

Gitaarakkoorden vader jacob - Nvpc12

Dankzij de bladmuziek op deze pagina wordt het een stuk makkelijker om met de gitaar mee te spelen met Nvpc12 van vader jacob De ProTabs van Gitaartabs worden door onze professionele gitaardocenten samengesteld. De tabs en chords zijn door leden zelf geplaatst. Deze undefined van vader jacob met Nvpc12 is voor je geschreven door nvpc12

Tabs & Chords van vader jacob - Nvpc12

Bij de ProTabs delen we niet alleen de tablatuur maar ook de speelwijze van Nvpc12 Met een beetje gitaar ervaring moet je dit gitaarliedje zeker kunnen spelen, maar als het niet lukt zijn we er altijd om je te helpen. Door een gratis account aan te maken krijg je niet alleen toegang tot deze tab ,akkoorden & tabs van Nvpc12 maar kun je ook onbeperkt meespelen met een van de meer dan 25.000 andere tabs & chords in onze database.

Plaats opmerking

Verstuur

Beoordeel deze song

Rate UsDon’t love itNot greatGoodGreatLove itRate Us

Bedankt voor je beoordeling! 

bottom of page