• Streaming gitaar liedjes spelen
  • Leer gitaar spelen & gitaarlessen
  • 80.000 leden

Gitaarles: Pentatonische toonladders

PENTATONISCHE TOONLADDERS

Toonladder in C-mineur
C Eb F G Bb C
Do Mib Fa Sol Sib Do

Toonladder in D-mineur
D F G A C D
Re Fa Sol La Do Re

Toonladder in E-mineur
E G A B D E
Mi Sol La Si Re Mi

Toonladder in F-mineur
F G# A# C D# F
Fa Sol# La# Do Re# Fa

Toonladder in G-mineur
G Bb C D F G
Sol Sib Do Re Fa Sol

Toonladder in A-mineur
A C D E G A
La Do Re Mi Sol La

Toonladder in B-mineur
B D E F# A B
Si Re Mi Fa# La Si
Probeer alle lessen voor slechts 1 euro! !

Gitaarles vragen, suggesties en opmerkingen

JanH

JanH 2016-02-08 00:00:00 / Reply

@solane22, volg de lessen van Jesse , hij legt in twee verschillende lessen uit over o.a. toonladders.

https://www.gitaartabs.nl/pro-gitaarles/422/vrij-meespelen-op-je-gitaar-deel-1.html
https://www.gitaartabs.nl/pro-gitaarles/434/licks-spelen-in-stijl-deel-1-sound-instellen.html


solane22

Solane22 2016-02-07 00:00:00 / Reply

hoi, ik kan het ook niet goed begrijpen als het niet in tabs met nummers staat, zouden alle toonladders zo weergegeven kunnen worden als er onderaan in die notenbalk met nummers? zou heel fijn zijn anders lukt het mij nooit.


yo

Yo 2010-01-16 10:01:34 / Reply

welke posities staan die pentatonische ladders


ken

Ken 2008-09-05 13:09:34 / Reply

(bedoel majeuren)


ken

Ken 2008-05-04 12:05:11 / Reply

denk je dat iedereen weet welke fret welke toon is hierVerbaasd

ik zou ze zo neer zetten
|------------------------------------------5--7----|
|---------------------------------5--7-------------|
|--------------------------4--6--------------------|
|------------------4--7----------------------------|
|-----------4--7-----------------------------------|
|---5--7-------------------------------------------|

gewoon op deze snaar beginnen.
naderhand als je deze door heb kan je ook op 3e fret van E snaar beginnen en dan

|------------------------------------------3--5----|
|---------------------------------3--5-------------|
|--------------------------2--4--------------------|
|------------------2--5----------------------------|
|-----------2--5-----------------------------------|
|---3--5-------------------------------------------|

vraag maar als je pentatoniche mineuren zo ook uitgelegd wil hebben.