Slow cheetah

Gitaarliedjes, tabs & akkoorden (chords) Slow cheetah - red hot chili peppers

Songtype: Bass-tab

arrow&v

Markeer als favoriet

Favoriet

Gemarkeerd als favoriet

Capo:

6

red hot chili peppers

red hot chili peppers

Song
Album
Categorie

Slow cheetah

Downloads
140
Niveau
1
stadium arcadium

Geplaatst door
timmy page
ProTabs-promo.jpg

e------------------------------------------------------------0---------------------------------------- Riff 1a
B-----------------------------------------0-----------------------------------------------------------
G------0---------------0----------2-----------------0-----------------------------------------------
D---2-------------0---------------------------------------------------------------------------------- 4x
A-------------------------------0----0---0------3-----3----3---------------------------------------
E-0--0--0------3---3----3--------------------------------------------------------------------------


e------2----0------------------------------------------------------------------------------------------- Riff 1b
B----------------------3----0---------------------------------------------------------------------------
G------------------------------------2--0--------------------------------------------------------------
D----------------------------------------------------2---0---------------------------------------------
A-----------------------------------0--0---0-----3---3---3------------------------------------------------
E---0----0----0----3----3----3-----------------------------------------------------------------------------




Riff 1a 4x riff 1b 2x riff 1a 4x riff 1b 1,5 x

Chorus

Asus2 C 2x G 2x Asus2 12x
C
G



Can't figure out the solo so you gotta live with this.





ProTabs promo.jpg

Onbeperkt en gratis toegang tot alle 25.000
Tabs & Chords en direct meespelen met

Artiest Liedje

...

Gitaarakkoorden red hot chili peppers - Slow cheetah

Dankzij de bladmuziek op deze pagina wordt het een stuk makkelijker om met de gitaar mee te spelen met Slow cheetah van red hot chili peppers De ProTabs van Gitaartabs worden door onze professionele gitaardocenten samengesteld. De tabs en chords zijn door leden zelf geplaatst. Deze undefined van red hot chili peppers met Slow cheetah is voor je geschreven door timmy page

Tabs & Chords van red hot chili peppers - Slow cheetah

Bij de ProTabs delen we niet alleen de tablatuur maar ook de speelwijze van Slow cheetah Met een beetje gitaar ervaring moet je dit gitaarliedje zeker kunnen spelen, maar als het niet lukt zijn we er altijd om je te helpen. Door een gratis account aan te maken krijg je niet alleen toegang tot deze bass-tab ,akkoorden & tabs van Slow cheetah maar kun je ook onbeperkt meespelen met een van de meer dan 25.000 andere tabs & chords in onze database.

Plaats opmerking

Verstuur

Beoordeel deze song

Rate UsDon’t love itNot greatGoodGreatLove itRate Us

Bedankt voor je beoordeling!