Bloedend hart

Gitaarliedjes, tabs & akkoorden (chords) Bloedend hart - de dijk

Songtype: Chords

arrow&v

Markeer als favoriet

Favoriet

Gemarkeerd als favoriet

Capo:

0

de dijk

de dijk

Song
Album
Categorie

Bloedend hart

Downloads
2577
Niveau
2
Geplaatst door
gitaartabs
ProTabs-promo.jpg

e -----------------------------------------------------------------------------
B --------7----------7-------7-------------2--3----3--5--5----------7----------
G --8--9-------7--9-------9-----9--9^4--4---------------------7--9-------------
D -----------------------------------------------------------------------------
A -----------------------------------------------------------------------------
E -----------------------------------------------------------------------------

e --7---------------7--10--7-----------------------------12---------12--12b14--
B --7--10b12r10--7------------10b12--10--7--------12b14------12b14-------------
G --7---------------------------------------9--7-------------------------------
D -----------------------------------------------------------------------------
A -----------------------------------------------------------------------------
E -----------------------------------------------------------------------------

^ slide
b bend (naar de toonhoogte van de fret erachter)
r release

Bloedend hart
Bas Caljouw


B
Ik doe niks en ik doe niks
Bm
Ik hang alleen maar rond
E/B
Ik kijk eens door de ramen
Em/B
En ik krab wat aan mijn kont
D F#/A#
Ik zie niks en ik hoor niets
Cdim Em/G
Mijn hoofd zit vol met smart

F# Em
Ik voel alleen het bloeden, het bloeden van mijn hart

Heb ik dat nou
B Em
Een bloedend hart alleen om jou
B
Is t echt over nou
B
Jij mooie vrouw, jij lieve vrouw
D F#/A Bm
Alleen jij kan me helpen
A G
Maar jij bent er niet
F# Bm
Oh, mijn niet te stelpen, bloedend hart

Ik doe niks en ik laat niks
Ik staar wat voor me uit
Ik neem nog maar een biertje
En ik speel wat op mijn fluit
Ik sta op en ik ga naar bed
Omdat dat zo moet
Ik wacht op wat gaat komen
Als ik ben leeggebloed

ProTabs promo.jpg

Onbeperkt en gratis toegang tot alle 25.000
Tabs & Chords en direct meespelen met

Artiest Liedje

...

Gitaarakkoorden de dijk - Bloedend hart

Dankzij de bladmuziek op deze pagina wordt het een stuk makkelijker om met de gitaar mee te spelen met Bloedend hart van de dijk De ProTabs van Gitaartabs worden door onze professionele gitaardocenten samengesteld. De tabs en chords zijn door leden zelf geplaatst. Deze undefined van de dijk met Bloedend hart is voor je geschreven door gitaartabs

Tabs & Chords van de dijk - Bloedend hart

Bij de ProTabs delen we niet alleen de tablatuur maar ook de speelwijze van Bloedend hart Met een beetje gitaar ervaring moet je dit gitaarliedje zeker kunnen spelen, maar als het niet lukt zijn we er altijd om je te helpen. Door een gratis account aan te maken krijg je niet alleen toegang tot deze chords ,akkoorden & tabs van Bloedend hart maar kun je ook onbeperkt meespelen met een van de meer dan 25.000 andere tabs & chords in onze database.

Plaats opmerking

Beoordeel deze song

Rate UsDon’t love itNot greatGoodGreatLove itRate Us

Bedankt voor je beoordeling!