Everything is avarage nowadays

Gitaarliedjes, tabs & akkoorden (chords) Everything is avarage nowadays - kaiser chiefs

Songtype: Chords

arrow&v

Markeer als favoriet

Favoriet

Gemarkeerd als favoriet

Capo:

0

kaiser chiefs

kaiser chiefs

Song
Album
Categorie

Everything is avarage nowadays

Downloads
1618
Niveau
1

Geplaatst door
gilerakevie
ProTabs-promo.jpg

Kevin Bruin

Kaiser Chiefs - Everything is avarage nowadays

Verse 1:

D D
Soooooooooooooooooooooooo
Bm
Everything is avarage nowadays
D
Everything is avarage nowadays
Bm
Everyone would do it if they can
G
And everyone is going down the pan
A
And everyone is following the craze

And everything is avarage now

Verse 2:

you say it's getting better
But I don't really see the signs
Said it is too different
You thought it would be suicide

e-----------------------------------------------------------------------------------|
B--7-------------------------7--------------------------------------------------|
G----9--7---7--9b-------------9-7---7-9---------------------------------|
D----------9--------------------------9-------9-------------------------------|
A--------------------------------------------------------------------------------|
E--------------------------------------------------------------------------------|

Chorus:
G
Not much to believe in
A
Left up on a shelf
G
So get your coats we're leaving
A
We'll just do something else

Verse 3:
D Bm
Ohhhw Everything is avarage nowadays
D
Everything is avarage nowadays
Bm
And everything is of no consequence
G
Cos everyone is sitting on the fence
A
And everything will always stay the same

Cos everything is average now

Verse 4:

You said you didn't mean it
You threw away the book of rules
You thought that we should read it
I wouldn't even know how to

e-----------------------------------------------------------------------------------|
B--7-------------------------7--------------------------------------------------|
G----9--7---7--9b-------------9-7---7-9---------------------------------|
D----------9--------------------------9-------9-------------------------------|
A--------------------------------------------------------------------------------|
E--------------------------------------------------------------------------------|

Chorus:

Bridge:
B E
All I need is a ball and a wall,
A G A B
Or a sledge and a hill in heavy weather
B E
All I need is a ball and a wall,
A G A B
A sledge and a hill in heavy weather

Chorus:

Verse 5:
E
Soooooooooooooooooooooooo
C#m
Everything is avarage nowadays
E
Everything is avarage nowadays
C#m
Everyone would do it if they can
A
And everyone is going down the pan
B
And everyone is following the craze
E
And everything is avarage nowadays

ProTabs promo.jpg

Onbeperkt en gratis toegang tot alle 25.000
Tabs & Chords en direct meespelen met

Artiest Liedje

...

Gitaarakkoorden kaiser chiefs - Everything is avarage nowadays

Dankzij de bladmuziek op deze pagina wordt het een stuk makkelijker om met de gitaar mee te spelen met Everything is avarage nowadays van kaiser chiefs De ProTabs van Gitaartabs worden door onze professionele gitaardocenten samengesteld. De tabs en chords zijn door leden zelf geplaatst. Deze undefined van kaiser chiefs met Everything is avarage nowadays is voor je geschreven door gilerakevie

Tabs & Chords van kaiser chiefs - Everything is avarage nowadays

Bij de ProTabs delen we niet alleen de tablatuur maar ook de speelwijze van Everything is avarage nowadays Met een beetje gitaar ervaring moet je dit gitaarliedje zeker kunnen spelen, maar als het niet lukt zijn we er altijd om je te helpen. Door een gratis account aan te maken krijg je niet alleen toegang tot deze chords ,akkoorden & tabs van Everything is avarage nowadays maar kun je ook onbeperkt meespelen met een van de meer dan 25.000 andere tabs & chords in onze database.

Plaats opmerking

Verstuur

Beoordeel deze song

Rate UsDon’t love itNot greatGoodGreatLove itRate Us

Bedankt voor je beoordeling!