I surrender

Gitaarliedjes, tabs & akkoorden (chords) I surrender - saybia

Songtype: Chords

arrow&v

Markeer als favoriet

Favoriet

Gemarkeerd als favoriet

Capo:

0

saybia

saybia

Song
Album
Categorie

I surrender

Downloads
1650
Niveau
1
these are the days

Geplaatst door
merdyff
ProTabs-promo.jpg

I Surrender - Saybia


Intro (x2)

e]--------------------------------------------------------------------|
B]---12--12--12--10---10---9---9---7--7-7-7---5--5--5--3---3---7------|
G]---11--11--11--11---11--10--10---8--8-8-8---6--6--6--4---4---8------|
D]---12--12--12--12---12--11--11---9--9-9-9---7--7--7--5---5---9------|
A]--------------------------------------------------------------------|
E]--------------------------------------------------------------------|


Bm D
A million suns are glowing in the night
F#m
everything is quiet
A
except for all the voices in my head
Bm
that say your name
D
tonight I'm letting go
F#m E Esus4 E E
about to give in


A E
I surrender myself
Bm D
into the arms of a beautiful stranger
A E Bm
I surrender myself to you
D
To you


A E
I surrender myself
Bm D
into the arms of a beautiful stranger
A E Bm
I surrender myself to you
D
To you


Bm D
There is only one bridge left for me
F#m
my heart is almost free
A
Beautiful by my side
Bm
but all I think about is you
D
tonight I'm letting go
F#m E Esus4 E E
about to give in


A E
I surrender myself
Bm D
into the arms of a beautiful stranger
A E Bm
I surrender myself to you
D
To you


A E
I surrender myself
Bm D
into the arms of a beautiful stranger
A E Bm D
I surrender myself to you
A E Bm D
Who really loves me
A E Bm D
you really love me
A E Bm D
My beautiful stranger
A E Bm D
you really love me like I love you.



End (x2)

e]---------------------------------------------------------------|
B]---12--12--12--10---10---9---9---7-----5--5--5--3---3---5------|
G]---11--11--11--11---11--10--10---8-----6--6--6--4---4---6------|
D]---12--12--12--12---12--11--11---9-----7--7--7--5---5---7------|
A]---------------------------------------------------------------|
E]---------------------------------------------------------------|

ProTabs promo.jpg

Onbeperkt en gratis toegang tot alle 25.000
Tabs & Chords en direct meespelen met

Artiest Liedje

...

Gitaarakkoorden saybia - I surrender

Dankzij de bladmuziek op deze pagina wordt het een stuk makkelijker om met de gitaar mee te spelen met I surrender van saybia De ProTabs van Gitaartabs worden door onze professionele gitaardocenten samengesteld. De tabs en chords zijn door leden zelf geplaatst. Deze undefined van saybia met I surrender is voor je geschreven door merdyff

Tabs & Chords van saybia - I surrender

Bij de ProTabs delen we niet alleen de tablatuur maar ook de speelwijze van I surrender Met een beetje gitaar ervaring moet je dit gitaarliedje zeker kunnen spelen, maar als het niet lukt zijn we er altijd om je te helpen. Door een gratis account aan te maken krijg je niet alleen toegang tot deze chords ,akkoorden & tabs van I surrender maar kun je ook onbeperkt meespelen met een van de meer dan 25.000 andere tabs & chords in onze database.

Plaats opmerking

Verstuur

Beoordeel deze song

Rate UsDon’t love itNot greatGoodGreatLove itRate Us

Bedankt voor je beoordeling!