Nemesis

Gitaarliedjes, tabs & akkoorden (chords) Nemesis - arch enemy

Songtype: Tab

arrow&v

Markeer als favoriet

Favoriet

Gemarkeerd als favoriet

Capo:

0

arch enemy

arch enemy

Song
Album
Categorie

Nemesis

Downloads
780
Niveau
3

Geplaatst door
[b]lack[a]ngel
ProTabs-promo.jpg

Alle gitaren zijn in drop C gestemd:
(C F Bb Eb G C)
Succes
Luister naar het nummer voor het ritme, zeker het eerste stuk. De intro is niet echt moeilijk, je moet alleen snelheid hebben.

Gtr I
|-------------------------------------|----------------------------------|
|-------------------------------------|----------------------------------|
|-------------------------------------|----------------------------------|
|-0-0-0-0-12--0-0-0-13-0-0-0-0-0-15-0-|-0-0-13-0-0-0-0-0-0h10h12-0h8h10--|
|-------------------------------------|----------------------------------|
|-------------------------------------|----------------------------------|
|
| Gtr II
|-------------------------------------|----------------------------------|
|-------------------------------------|----------------------------------|
|-7-----------------------------------|----------------------------------|
|-7-----------------------------------|----------------------------------|
|-5-----------------------------------|----------------------------------|
|-------------------------------------|----------------------------------|


Gtr I
|------------------------------------|---------------------------------|
|------------------------------------|---------------------------------|
|------------------------------------|---------------------------------|
|-0-0-0-0-12-0-0-0-13-0-0-0-0-0-15-0-|-0-0-13-0-0-0-0-0-0h10h12-0h8h10-|
|------------------------------------|---------------------------------|
|------------------------------------|---------------------------------|



Gtr I
|------------------------------------|----------------------------------|
|------------------------------------|----------------------------------|
|------------------------------------|----------------------------------|
|-0-0-0-0-12-0-0-0-13-0-0-0-0-0-15-0-|-0-0-13-0-0--0-0-0-0h10h12-0h8h10-|
|------------------------------------|----------------------------------|
|------------------------------------|----------------------------------|
|
| Gtr II
|------------------------------------|----------------------------------|
|------------------------------------|----------------------------------|
|----------7--------8-----------10---|------8---------------------------|
|----------7--------8-----------10---|------8---------------------------|
|----------5--------6------------8---|------6---------------------------|
|------------------------------------|----------------------------------|


I
|------------------------------------|-----------------------------------|
|------------------------------------|-----------------------------------|
|------------------------------------|-----------------------------------|
|-0-0-0-0-12-0-0-0-13-0-0-0-0-0-15-0-|-0-0-13-0-0-0-0-0-0h10h12--0h=8h10-|
|------------------------------------|-----------------------------------|
|------------------------------------|-----------------------------------|
|
| II
|------------------------------------|-----------------------------------|
|------------------------------------|-----------------------------------|
|----------7--------8-----------10---|------8----------------------------|
|----------7--------8-----------10---|------8----------------------------|
|----------5--------6------------8---|------6-------------------12\------|
|------------------------------------|-----------------------------------|



Gtr I
|------------------------------------|---------------------------------|
|------------------------------------|---------------------------------|
|------------------------------------|---------------------------------|
|-0-0-0-0-12-0-0-0-13-0-0-0-0-0-15-0-|-0-0-13-0-0-0-0-0-0h10h12-0h8h10-|
|------------------------------------|---------------------------------|
|------------------------------------|---------------------------------|



Gtr III
|-22----------------------------------|-(22)-------------------------------|
|-22----------------------------------|-(22)-------------------------------|
|-------------------------------------|------------------------------------|
|-------------------------------------|------------------------------------|
|-------------------------------------|------------------------------------|
|-------------------------------------|------------------------------------|
|
| Gtr I
|-------------------------------------|------------------------------------|
|-------------------------------------|------------------------------------|
|-------------------------------------|------------------------------------|
|--0-0-0-0-12-0-0-0-13-0-0-0-0-0-15-0-|---0--0-13-0-0-0-0-0-0h10h12-0h8h10-|
|-------------------------------------|------------------------------------|
|-------------------------------------|------------------------------------|



|-(22)----------------------------------|-(22)-------------------------------|
|-(22)----------------------------------|-(22)-------------------------------|
|---------------------------------------|------------------------------------|
|---------------------------------------|------------------------------------|
|---------------------------------------|------------------------------------|
|---------------------------------------|------------------------------------|
|
|
|---------------------------------------|------------------------------------|
|---------------------------------------|------------------------------------|
|---------------------------------------|------------------------------------|
|---0--0-0-0-12-0-0-0-13-0-0-0-0-0-15-0-|---0--0-13-0-0-0-0-0-0h10h12-0h8h10-|
|---------------------------------------|------------------------------------|
|---------------------------------------|------------------------------------|

|-(22)----------------------------------|-(22)-------------------------------|
|-(22)----------------------------------|-(22)-------------------------------|
|---------------------------------------|------------------------------------|
|---------------------------------------|------------------------------------|
|---------------------------------------|------------------------------------|
|---------------------------------------|------------------------------------|
|
|
|---------------------------------------|------------------------------------|
|---------------------------------------|------------------------------------|
|---------------------------------------|------------------------------------|
|---0--0-0-0-12-0-0-0-13-0-0-0-0-0-15-0-|---0--0-13-0-0-0-0-0-0h10h12-0h8h10-|
|---------------------------------------|------------------------------------|
|---------------------------------------|------------------------------------|


Couplet
Gtrs I, II
PM| PM PM| PM PM| PM PM| PM PM--|
||------------------||-----------------|-----------------|--------------|
||o-----------------||-----------------|-----------------|--------------|
||------------------||-----------------|-----------------|--------------|
||------3---2-----3-||---2-----0---0h2-|-----3---2-------|----3--5--6---|
||o-----3---2-----3-||---2-----0---0h2-|-----3---2-------|-3--1--3--4---|
||--0-0---0---0-0---||-0---0-0---0-----|-0-0---0---0-0-0-|-1------------|



PM| PM PM| PM PM| PM
|-----------------|-----------------|
|-----------------|-----------------|
|-----------------|-----------------|
|-----3---2-----3-|---2-----0---0h2-|
|-----3---2-----3-|---2-----0---0h2-|
|-0-0---0---0-0---|-0---0-0---0-----|



PM| PM PM--|
|-----------------|-------------|--------------||
|-----------------|-------------|-------------o||
|-----------------|-------------|--------------||
|-----3---2-------|----3--5--6--|----6--8--9---||
|-----3---2-------|-3--1--3--4--|-6--4--6--7--o||
|-0-0---0---0-0-0-|-1-----------|-4------------||


Gtr III
|-16b19----------------------------------|
|----------------------------------------|
|----------------------------------------|
|----------------------------------------|
|----------------------------------------|
|----------------------------------------|
|
| Gtrs I, II
|----------------------------------------|
|----------------------------------------|
|----------------------------------------|
|--0----0-0-0-12-0-0-0-13-0-0-0-0-0-15-0-|
|----------------------------------------|
|----------------------------------------|



|-(16)h19--------------------------------|
|-------------------------2-------------|
|-----------------------------------------|
|-----------------------------------------|
|-----------------------------------------|
|-----------------------------------------|
|
|-----------------------------------------|
|-----------------------------------------|
|-----------------------------------------|
|---0------0-13-0-0-0-0-0--0h10h12-0h8h10-|
|-----------------------------------------|
|-----------------------------------------|



|----------------------------------------|
|-(2)----------------------------------|
|----------------------------------------|
|----------------------------------------|
|----------------------------------------|
|----------------------------------------|
|
|----------------------------------------|
|----------------------------------------|
|----------------------------------------|
|---0---0-0-0-12-0-0-0-13-0-0-0-0-0-15-0-|
|----------------------------------------|
|----------------------------------------|



|-----------------------------------------|
|---2------------2------------------------|
|-----------------------------------------|
|-----------------------------------------|
|-----------------------------------------|
|-----------------------------------------|
|
|
|-----------------------------------------|
|-----------------------------------------|
|-----------------------------------------|
|---0---0-13-0---0---0-0-0-0h10h12-0h8h10-|
|-----------------------------------------|
|-----------------------------------------|



|-23-20---22---23---22----20---23---20---22-23-22---20---23---20---22---23----22---20-|
|-------------------------------------------------------------------------------------|
|-------------------------------------------------------------------------------------|
|-------------------------------------------------------------------------------------|
|-------------------------------------------------------------------------------------|
|-------------------------------------------------------------------------------------|
|
|
|-------------------------------------------------------------------------------------|
|-------------------------------------------------------------------------------------|
|-------------------------------------------------------------------------------------|
|--0----0----0----0----12----0----0----0----13----0----0----0----0----0----15----0----|
|-------------------------------------------------------------------------------------|
|-------------------------------------------------------------------------------------|


|-23-22---20----23---20---22---23---22---20----------------23-22---20----------------|
|-------------------------------------------23-22----20-----------------23----22-20--|
|------------------------------------------------------------------------------------|
|------------------------------------------------------------------------------------|
|------------------------------------------------------------------------------------|
|------------------------------------------------------------------------------------|
|
|------------------------------------------------------------------------------------|
|------------------------------------------------------------------------------------|
|------------------------------------------------------------------------------------|
|--0----0----13----0----0----0----0----0-----0h===10h===12-------0h===8h===10--------|
|------------------------------------------------------------------------------------|
|------------------------------------------------------------------------------------|



|-------------------------------------------------------------------------------------|
|-------------------------------------------------------------------------------------|
|-20-19---17-------------------20---19---17-------------------------------------------|
|--------------20---19----17----------------20-19---17--------------------------------|
|--------------------------------------------------------18---17---15-----------------|
|-----------------------------------------------------------------------18----17---15-|
|
|-------------------------------------------------------------------------------------|
|-------------------------------------------------------------------------------------|
|-------------------------------------------------------------------------------------|
|--0----0----0----0----12----0----0----0----13----0----0----0----0----0----15----0----|
|-------------------------------------------------------------------------------------|
|-------------------------------------------------------------------------------------|



|--------------------------------------|
|--------------------------------------|
|--------------------------------------|
|--------------------------------------|
|-15-----------------------------------|
|----18-17-15-14-----------------------|
|
|--------------------------------------|
|--------------------------------------|
|--------------------------------------|
|--0--0-13--0--0--0-0-0-0h10h12-0h8h10-|
|--------------------------------------|
|--------------------------------------|


Couplet
Gtrs I, II
PM| PM PM| PM PM| PM PM| PM PM--|
|-----------------||-----------------|-----------------|-------------|
|-----------------||-----------------|-----------------|-------------|
|-----------------||-----------------|-----------------|-------------|
|-----3---2-----3-||---2-----0---0h2-|-----3---2-------|----3--5--6--|
|-----3---2-----3-||---2-----0---0h2-|-----3---2-------|-3--1--3--4--|
|-0-0---0---0-0---||-0---0-0---0-----|-0-0---0---0-0-0-|-1-----------|



PM| PM PM| PM PM| PM
|-----------------|-----------------|
|-----------------|-----------------|
|-----------------|-----------------|
|-----3---2-----3-|---2-----0---0h2-|
|-----3---2-----3-|---2-----0---0h2-|
|-0-0---0---0-0---|-0---0-0---0-----|



PM| PM PM--|
|-----------------|-------------|-------------|
|-----------------|-------------|-------------|
|-----------------|-------------|-------------|
|-----3---2-------|----3--5--6--|----6--8--9--|
|-----3---2-------|-3--1--3--4--|-6--4--6--7--|
|-0-0---0---0-0-0-|-1-----------|-4-----------|



PM| PM PM| PM PM| PM PM| PM PM--|
|-----------------|-----------------|-----------------|-------------|
|-----------------|-----------------|-----------------|-------------|
|-----------------|-----------------|-----------------|-------------|
|-----3---2-----3-|---2-----0---0h2-|-----3---2-------|----3--5--6--|
|-----3---2-----3-|---2-----0---0h2-|-----3---2-------|-3--1--3--4--|
|-0-0---0---0-0---|-0---0-0---0-----|-0-0---0---0-0-0-|-1-----------|



PM| PM PM| PM PM| PM
|-----------------|-----------------|
|-----------------|-----------------|
|-----------------|-----------------|
|-----3---2-----3-|---2-----0---0h2-|
|-----3---2-----3-|---2-----0---0h2-|
|-0-0---0---0-0---|-0---0-0---0-----|


PM| PM PM--| PM
|-----------------|-------------|-------------|
|-----------------|-------------|-------------|
|-----------------|-------------|-------------|
|-----3---2-------|----3--5--6--|----6--8--9--|
|-----3---2-------|-3--1--3--4--|-6--4--6--7--|
|-0-0---0---0-0-0-|-1-----------|-4-----------|


Refrein
Gtr III
|------------------------------7---|-(7)---8---5------------------------|
|-/5---------------5---7---8-------|------------------------------------|
|----------------------------------|------------------------------------|
|----------------------------------|------------------------------------|
|----------------------------------|------------------------------------|
|----------------------------------|------------------------------------|
|
| Gtrs I (en II??)
|----------------------------------|------------------------------------|
|----------------------------------|------------------------------------|
|--5-5-5-5-5-5-5-5-5-5-5-5-5-5-5-5-|--7--7-7-7-7--7-7-7-7-7-7-7-7-7-7-7-|
|----------------------------------|------------------------------------|
|--3-3-3-3-3-3-3-3-3-3-3-3-3-3-3-3-|--5--5-5-5-5--5-5-5-5-5-5-5-5-5-5-5-|
|----------------------------------|------------------------------------|



|-----------------------------5---|-(5)---7---3-----------------------|
|-3---------------3---5---7-------|---------------------------7-------|
|---------------------------------|-----------------------------------|
|---------------------------------|-----------------------------------|
|---------------------------------|-----------------------------------|
|---------------------------------|-----------------------------------|
|
|---------------------------------|-----------------------------------|
|---------------------------------|-----------------------------------|
|-4-4-4-4-4-4-4-4-4-4-4-4-4-4-4-4-|--5--5-5-5-5-5-5-5-5-5-5-5-5-5-5-5-|
|---------------------------------|-----------------------------------|
|-2-2-2-2-2-2-2-2-2-2-2-2-2-2-2-2-|--3--3-3-3-3-3-3-3-3-3-3-3-3-3-3-3-|
|---------------------------------|-----------------------------------|



|------------------------------7---|
|-/5---------------5---7---8-------|
|----------------------------------|
|----------------------------------|
|----------------------------------|
|----------------------------------|
|
| Gtr I
|----------------------------------|
|----------------------------------|
|--9-9-9-9-9-9-9-9-9-9-9-9-9-9-9-9-|
|----------------------------------|
|--7-7-7-7-7-7-7-7-7-7-7-7-7-7-7-7-|
|----------------------------------|
|
| Gtr II
|----------------------------------|
|----------------------------------|
|--5-5-5-5-5-5-5-5-5-5-5-5-5-5-5-5-|
|----------------------------------|
|--3-3-3-3-3-3-3-3-3-3-3-3-3-3-3-3-|
|----------------------------------|



|-(7)-----8-----5----------------------(5)----10p=8h=|
|----------------------------------------------------|
|----------------------------------------------------|
|----------------------------------------------------|
|----------------------------------------------------|
|----------------------------------------------------|
|
|----------------------------------------------------|
|----------------------------------------------------|
|-11--11-11-11-11-11-11-11-11-11-11-11-11--11-11-11--|
|----------------------------------------------------|
|--9---9--9--9--9--9--9--9--9--9--9--9--9---9--9--9--|
|----------------------------------------------------|
|
|----------------------------------------------------|
|----------------------------------------------------|
|--7---7--7--7--7--7--7--7--7--7--7--7--7---7--7--7--|
|----------------------------------------------------|
|--5---5--5--5--5--5--5--5--5--5--5--5--5---5--5--5--|
|----------------------------------------------------|


|-10--------------------------10-------|
|---------------8---(8)----------------|
|--------------------------------------|
|--------------------------------------|
|--------------------------------------|
|--------------------------------------|
|
|--------------------------------------|
|--------------------------------------|
|--7--7-7-7-7-7-7-7--7--7-7-7--7-7-7-7-|
|--------------------------------------|
|--5--5-5-5-5-5-5-5--5--5-5-5--5-5-5-5-|
|--------------------------------------|
|
|--------------------------------------|
|--------------------------------------|
|--4--4-4-4-4-4-4-4--4--4-4-4--4-4-4-4-|
|--------------------------------------|
|--2--2-2-2-2-2-2-2--2--2-2-2--2-2-2-2-|
|--------------------------------------|



|-/12---------------------------------------|
|-------------------------------------------|
|-------------------------------------------|
|-------------------------------------------|
|-------------------------------------------|
|-------------------------------------------|
|
|-------------------------------------------|
|-------------------------------------------|
|---9-9-9-9-9-9-9-9-11-11-11-11-11-11-11-11-|
|-------------------------------------------|
|---7-7-7-7-7-7-7-7--9--9--9--9--9--9--9--9-|
|-------------------------------------------|
|
|-------------------------------------------|
|-------------------------------------------|
|---5-5-5-5-5-5-5-5--7--7--7--7--7--7--7--7-|
|-------------------------------------------|
|---3-3-3-3-3-3-3-3--5--5--5--5--5--5--5--5-|
|-------------------------------------------|



|------------------------------------|----------------------------------|
|------------------------------------|----------------------------------|
|------------------------------------|----------------------------------|
|-0-0-0-0-12-0-0-0-13-0-0-0-0-0-15-0-|-0-0-13-0-0--0-0-0-0-10-12-0-8-10-|
|------------------------------------|----------------------------------|
|------------------------------------|----------------------------------|
|
|------------------------------------|----------------------------------|
|------------------------------------|----------------------------------|
|------------------------------------|----------------------------------|
|----------7--------8-----------10---|------8---------------------------|
|----------5--------6------------8---|------6---------------------------|
|------------------------------------|----------------------------------|



|----------------------------------------|
|-13b15----------------------------------|
|----------------------------------------|
|----------------------------------------|
|----------------------------------------|
|----------------------------------------|
|
| Gtrs I, II
|----------------------------------------|
|----------------------------------------|
|----------------------------------------|
|--0----0-0-0-12-0-0-0-13-0-0-0-0-0-15-0-|
|----------------------------------------|
|----------------------------------------|


|-------3-------|
|-----------------------------------------------|
|-(13)pb15----------------13-------11-----10----|
|-----------------------------------------------|
|-----------------------------------------------|
|-----------------------------------------------|
|-----------------------------------------------|
|
|-----------------------------------------------|
|-----------------------------------------------|
|-----------------------------------------------|
|---0------0-13-0-0-0-0-0--0h10h12----0h8h===10-|
|-----------------------------------------------|
|-----------------------------------------------|



|-------------------------------------------------------|
|-11b13---(11)pb13---(11)pb13------------11---10--------|
|--------------------------------------------------12---|
|-------------------------------------------------------|
|-------------------------------------------------------|
|-------------------------------------------------------|
|
|-------------------------------------------------------|
|-------------------------------------------------------|
|-------------------------------------------------------|
|--0----0---0------0--12------0-0-0-13-0--0-0--0-0-15-0-|
|-------------------------------------------------------|
|-------------------------------------------------------|



|-11b13----------------(11)pb13--------------|
|--------------------------------------------|
|--------------------------------------------|
|--------------------------------------------|
|--------------------------------------------|
|--------------------------------------------|
|
|--------------------------------------------|
|--------------------------------------------|
|--------------------------------------------|
|--0----0-13-0-0-0-0-0---0h=====10h12-0h8h10-|
|--------------------------------------------|
|--------------------------------------------|



|-------------------------------------------------|
|-20-19-------20-19-------20-19-------20-19-------|
|-------20-19-------20-19-------20-19-------20-19-|
|-------------------------------------------------|
|-------------------------------------------------|
|-------------------------------------------------|
|
|-------------------------------------------------|
|-------------------------------------------------|
|-------------------------------------------------|
|--0--0--0--0-12--0--0--0-13--0--0--0--0--0-15--0-|
|-------------------------------------------------|
|-------------------------------------------------|



|-------------------------------------------------|
|-22-19-------22-19-------22-19-------22-19-------|
|-------20-19-------20-19-------20-19-------20-19-|
|-------------------------------------------------|
|-------------------------------------------------|
|-------------------------------------------------|
|
|-------------------------------------------------|
|-------------------------------------------------|
|-------------------------------------------------|
|--0--0-13--0--0--0--0--0--0h10h12-----0h=8h10----|
|-------------------------------------------------|
|-------------------------------------------------|



|-22-18-------------22-18-------------22-18-------|
|-------22-19-------------22-19-------------22-19-|
|-------------20-19-------------20-19-------------|
|-------------------------------------------------|
|-------------------------------------------------|
|-------------------------------------------------|
|
|-------------------------------------------------|
|-------------------------------------------------|
|-------------------------------------------------|
|--0--0--0--0-12--0--0--0-13--0--0--0--0--0-15--0-|
|-------------------------------------------------|
|-------------------------------------------------|



|------22---(22)b23----------------------|
|----------------------------------------|
|-20-------------------------------------|
|----------------------------------------|
|----------------------------------------|
|----------------------------------------|
|
|----------------------------------------|
|----------------------------------------|
|----------------------------------------|
|--0-0-13-0---0-----0-0-0-0h10h12-0h8h10-|
|----------------------------------------|
|----------------------------------------|



|-22b24---------------||-(22)pb24---------------|
|---------------------||------------------------|
|---------------------||------------------------|
|---------------------||------------------------|
|---------------------||------------------------|
|---------------------||------------------------|
|
| Gtrs I, II
| PM---| PM PM| PM PM| PM
|---------------------||------------------------|
|---------------------||------------------------|
|---------------------||------------------------|
|---------3---2-----3-||----------2-----0---0h2-|
|---------3---2-----3-||----------2-----0---0h2-|
|--0----0---0---0-0---||---0--------0-0---0-----|


|-----------------|-------------|
|-----------------|-------------|
|-----------------|-------------|
|-----------------|-------------|
|-----------------|-------------|
|-----------------|-------------|
|
| PM| PM PM--|
|-----------------|-------------|
|-----------------|-------------|
|-----------------|-------------|
|-----3---2-------|----3--5--6--|
|-----3---2-------|-3--1--3--4--|
|-0-0---0---0-0-0-|-1-----------|



PM| PM PM| PM PM| PM
|-----------------|-----------------|
|-----------------|-----------------|
|-----------------|-----------------|
|-----3---2-----3-|---2-----0---0h2-|
|-----3---2-----3-|---2-----0---0h2-|
|-0-0---0---0-0---|-0---0-0---0-----|



PM| PM PM--|
|-----------------|-------------|-------------|
|-----------------|-------------|-------------|
|-----------------|-------------|-------------|
|-----3---2-------|----3--5--6--|----6--8--9--|
|-----3---2-------|-3--1--3--4--|-6--4--6--7--|
|-0-0---0---0-0-0-|-1-----------|-4-----------|


Gtr III
|-10--------------------------10-------|-/12b14--------(12)--|
|---------------8---(8)----------------|---------------------|
|--------------------------------------|---------------------|
|--------------------------------------|---------------------|
|--------------------------------------|---------------------|
|--------------------------------------|---------------------|
|
| Gtr II
|--------------------------------------|---------------------|
|--------------------------------------|---------------------|
|--7--7-7-7-7-7-7-7--7--7-7-7--7-7-7-7-|---9-------11--------|
|--------------------------------------|---------------------|
|--5--5-5-5-5-5-5-5--5--5-5-5--5-5-5-5-|---7--------9--------|
|--------------------------------------|---------------------|
|
| Gtr I
|--------------------------------------|---------------------|
|--------------------------------------|---------------------|
|--4--4-4-4-4-4-4-4--4--4-4-4--4-4-4-4-|---5--------7--------|
|--------------------------------------|---------------------|
|--2--2-2-2-2-2-2-2--2--2-2-2--2-2-2-2-|---3--------5--------|
|--------------------------------------|---------------------|


Breakdown
Gtrs I, II
PM----------------------------------------------------------------------|
|-------------------------------------|---------------------------------------|
|-------------------------------------|---------------------------------------|
|-------------------------------------|---------------------------------------|
|-------------------------------------|---------------------------------------|
|-------------------------------------|---------------------------------------|
|-0-0-0-0-0-0-0-0-0-0-0-0-0-0-0-0-0-0-|-0-0-0-0-0-0-0-0-0-0-0-0-0-0-0-0-0-0---|


Gtr I
PM-----------------------------------
|-------------------------------------|
|-------------------------------------|
|-------------------------------------|
|-------------------------------------|
|-------------------------------------|
|-0-0-0-0-0-0-0-0-0-0-0-0-0-0-0-0-0-0-|
|
| Gtr II
| PM-----------------------------------
|-------------------------------------|
|-------------------------------------|
|-------------------------------------|
|-------------------------------------|
|-------------------------------------|
|-0-0-0-0-0-0-0-0-0-0-0-0-0-0-0-0-0-0-|


pm-----------------------------------------|
|----------------------------------------------|
|----------------------------------------------|
|----------------------------------------------|
|----------------------------------------------|
|----------------------------------------------|
|-0-0-0---0-0-0---0-0-0---0-0-0---0-0-0--0--0--|
|
|PM-----------------------------------|
|----------------------------------------------|
|----------------------------------------------|
|----------------------------------------------|
|----------------------------------------------|
|----------------------------------------------|
|-0-0-0---0-0-0---0-0-0---0-0-0---0-0-0-12\----|


Gtrs I, II
PM-----------------------------------
||--------------------------------------|
||o-------------------------------------|
||--------------------------------------|
||--------------------------------------|
||o-------------------------------------|
||--0-0-0-0-0-0-0-0-0-0-0-0-0-0-0-0-0-0-|


-------|
|---------------------------------------||
|----------------------9-12-11-9-------o||
|-----------4---7-10-9-----------11-9---||
|---------6---8-------------------------||
|---5-8-7------------------------------o||
|-6-------------------------------------||


Gtr I
PM-----------------------------------
||--------------------------------------|
||o-------------------------------------|
||--------------------------------------|
||--------------------------------------|
||o-------------------------------------|
||--0-0-0-0-0-0-0-0-0-0-0-0-0-0-0-0-0-0-|
|
| Gtr II
| PM-----------------------------------
||--------------------------------------|
||o-------------------------------------|
||--------------------------------------|
||--------------------------------------|
||o-------------------------------------|
||--0-0-0-0-0-0-0-0-0-0-0-0-0-0-0-0-0-0-|


-PM-------|
|---------------------------------------------------||
|--------------------------------9-12-11--9--------o||
|-----------------4-----7-10--9-------------11--9---||
|--------------6-----8------------------------------||
|-----5--8--7--------------------------------------o||
|--6------------------------------------------------||
|
|-PM-------|
|-------------------------------16-19-18-16---------||
|-------------------------18-17-------------19-17--o||
|----------------16----19---------------------------||
|-------------18----20------------------------------||
|----17-20-19--------------------------------------o||
|-18------------------------------------------------||



Gtr IV
|----------------7-|-(7)-8-5------------|
|-/5-------5-7-8---|--------------------|
|------------------|--------------------|
|------------------|--------------------|
|------------------|--------------------|
|------------------|--------------------|
|
| Gtr V
|----------------0-|------------0-----0-|
|----1-3-1---1-----|-------3------3-----|
|------------------|-----2----2-----2---|
|------------------|--0-----------------|
|--3-------3---3---|--------------------|
|------------------|--------------------|


|---------------5-|-(5)-7-3-----------|
|-3-------3-5-7---|---------------7---|
|-----------------|-------------------|
|-----------------|-------------------|
|-----------------|-------------------|
|-----------------|-------------------|
|
|---------2-----0-|-----------2-----0-|
|-----3-----3-----|-------3-----3-----|
|-------------4---|-----0---0-----0---|
|---5---5---------|-------------------|
|-2---------------|--3----------------|
|-----------------|-------------------|



|----------------7-|-(7)-8-5-------(5)-10p8h=|
|-/5-------5-7-8---|-------------------------|
|------------------|-------------------------|
|------------------|-------------------------|
|------------------|-------------------------|
|------------------|-------------------------|
|
|----------------0-|-----------0--------0----|
|----1-3-1---1-----|-------3-----3-----------|
|------------------|-----2---2------2--------|
|------------------|--0----------------------|
|--3-------3---3---|-------------------------|
|------------------|-------------------------|



|-10--------------10---|-/12-------14b15-------|
|---------8-(8)--------|-----------------------|
|----------------------|-----------------------|
|----------------------|-----------------------|
|----------------------|-----------------------|
|----------------------|-----------------------|
|
|------------2-------0-|------------2--------0-|
|-------3-------3------|-------3---------3-----|
|------------------4---|-----0---0---------0---|
|-----5---5------------|-----------------------|
|--2-------------------|---3-------------------|
|----------------------|-----------------------|



| Gtr III
|---------------------------------------10---|
|-----------------------------10---11--------|
|-/12--------------------12------------------|
|--------------------------------------------|
|--------------------------------------------|
|--------------------------------------------|
|
| Gtrs I, II
|--------------------------------------------|
|--------------------------------------------|
|---8------8-8-8-8-8-8-8--8-8--8-8--8-8--8-8-|
|--------------------------------------------|
|---6------6-6-6-6-6-6-6--6-6--6-6--6-6--6-6-|
|--------------------------------------------|




|-(10)----11-----------------------------------------|
|---------------13-----------------------------------|
|----------------------------------------------------|
|----------------------------------------------------|
|----------------------------------------------------|
|----------------------------------------------------|
|
|----------------------------------------------------|
|----------------------------------------------------|
|--10--10-10-10-10--10-10-10-10-10-10-10-10-10-10-10-|
|----------------------------------------------------|
|---8---8--8--8--8---8--8--8--8--8--8--8--8--8--8--8-|
|----------------------------------------------------|



Gtr III
|---------------------------------------|
|-----------------------------10---13---|
|-/10---------------10---12-------------|
|---------------------------------------|
|---------------------------------------|
|---------------------------------------|
|
| Gtr I
|---------------------------------------|
|---------------------------------------|
|---7-7-7-7-7-7-7-7--7-7--7-7--7-7