Pretender

Gitaarliedjes, tabs & akkoorden (chords) Pretender - foo fighters

Songtype: Tab

arrow&v

Markeer als favoriet

Favoriet

Gemarkeerd als favoriet

Capo:

0

foo fighters

foo fighters

Song
Album
Categorie

Pretender

Downloads
682
Niveau
2

Geplaatst door
[b]lack[a]ngel
ProTabs-promo.jpg


E||----------------7-------------|---------0------0------0-----|
B||------------10-----10---------|--------10-----10-----10-----|
G||---------9-------------9------|---------9------9------9-----|
D||-----10-------------------10--|--------10-----10-----10-----|
A||--0---------------------------|--0----------------0------9--|
E||------------------------------|-----7------8----------------|


-------------------------------|----------------0-------------|
---------------10--------------|------------10-----10---------|
------------9------------------|---------9-------------9------|
--(10)--10---------------------|-----10-------------------10--| x3
---------------------9b--9--8--|--L---------------------------|
-------------------------------|------------------------------|




-0-0-0-0-0-0--0-0-0-0-0-0-0-0--0-0-|
|--5-5-7-5-8-5-10-----5-7-5-8-5-10-5-|
|------------------------------------| x27
|------------------------------------|
|------------------------------------|
|------------------------------------|



|----------------------------------|
|--5-5---------5-5-5-5-------------|
|--5-5---------5-5-5-5-------------|
|--7-7---------7-7-7-7-------------|
|--7-7---------7-7-7-7-------------|
|--5-5---------5-5-5-5-------------|

----------------------------------|----------------------------------|
--5-5---------5-5-5-5-------------|----------------------------------|
--5-5---------5-5-5-5-------------|--2-2---------2-2-2-2-------------|
--7-7---------7-7-7-7-------------|--4-4---------4-4-4-4-------------|
--7-7---------7-7-7-7-------------|--5-5---------5-5-5-5-------------|
--5-5---------5-5-5-5-------------|--2-2---------2-2-2-2-------------|

---------------------------------------------------------------------------------------------------|
--1-1---------1-1-1-1------------- ---5-5---------5-5-5-5--| x3
--3-3---------3-3-3-3------------------------------------------------------------------------------|
--3-3---------3-3-3-3------------------------------------------------------------------------------|
--1-1---------1-1-1-1------------------------------------------------------------------------------|


|--------------------------------------------|
|--5-5-------------5-5-5-5-------------------|
|--5-5-------------5-5-5-5-------------------|
|--7-7-------------7-7-7-7-------------------|
|--7-7-7--7--7--7--7-7-7-7-7--7--7--7--7--7--|
|--5-5-5--5--5--5--5-5-5-5-5--5--5--5--5--5--|


--------------------------------------------|
--5-5-------------5-5-5-5-------------------|
--5-5-------------5-5-5-5-------------------|
--7-7-------------7-7-7-7-------------------|
--7-7-7--7--7--7--7-7-7-7-7--7--7--7--7--7--|
--5-5-5--5--5--5--5-5-5-5-5--5--5--5--5--5--|

--------------------------------------------|
--------------------------------------------|
--2-2-------------2-2-2-2-------------------|
--4-4-------------4-4-4-4-------------------|
--5-5-5--5--5--5--5-5-5-5-5--5--5--5--5--5--|
--2-2-2--2--2--2--2-2-2-2-2--2--2--2--2--2--|


--------------------------------------------|
--------------------------------------------|
--2-2-------------2-2-2-2-------------------|
--3-3-------------3-3-3-3-------------------|
--3-3-3--3--3--3--3-3-3-3-3--3--3--3--3--3--|
--1-1-1--1--1--1--1-1-1-1-1--1--1--1--1--1--|


|----------------------------------|
|----------------------------------|
|----------------------------------|
|--4-4-4-4-4-4-4-4-4-4-4-4-4-4-4-4-|
|--5-5-5-5-5-5-5-5-5-5-5-5-5-5-5-5-|
|--2-2-2-2-2-2-2-2-2-2-2-2-2-2-2-2-|


|------------------------------------------|
|------------------------------------------|
|--7-7-7-7-9-9-9-9-11-11-11-11-12-12-12-12-|
|--x-x-x-x-x-x-x-x--x--x--x--x--x--x--x--x-|
|--5-5-5-5-7-7-7-7--9--9--9--9-10-10-10-10-|
|------------------------------------------|


--5-5-5-5-5-5-5-5-5-5-5-5-5-5-5-5-|--5-5-5-5-5-5-5-5-5-5-5-5-5-5-3--|
--5-5-5-5-5-5-5-5-5-5-5-5-5-5-5-5-|--5-5-5-5-5-5-5-5-5-5-5-5-5-5-3--|
--5-5-5-5-5-5-5-5-5-5-5-5-5-5-5-5-|--5-5-5-5-5-5-5-5-5-5-5-5-5-5-5--|
----------------------------------|---------------------------------|
----------------------------------|---------------------------------|
----------------------------------|---------------------------------|


-----3-3-3-3-3-3-3-3-3-3-3-3-3-3-|--5-5-5-5-5-5-5-5-5-5-5-5-5-5-5-5-|
-----3-3-3-3-3-3-3-3-3-3-3-3-3-3-|--6-6-6-6-6-6-6-6-6-6-6-6-6-6-6-6-|
-----5-5-5-5-5-5-5-5-5-5-5-5-5-5-|--5-5-5-5-5-5-5-5-5-5-5-5-5-5-5-5-|
---------------------------------|----------------------------------|
---------------------------------|----------------------------------|
---------------------------------|----------------------------------|

Referin
----------------------------------|---------------------------------|
----------------------------------|---------------------------------|
----------------------------------|---------------------------------|
--7-7-7-7-7-7-7-7-7-7-7-7-7-7-7-7-|--7-7-------------------------4--|
--7-7-7-7-7-7-7-7-7-7-7-7-7-7-7-7-|--7-7---------3-3-3-3---------5--|
--5-5-5-5-5-5-5-5-5-5-5-5-5-5-5-5-|--5-5-7-7-7-7---------5-5-5-5-2--|

---------------------------------|----------------------------------|
---------------------------------|----------------------------------|
--L------------------------------|----------------------------------|
--L--4-4-4-4-4-4-4-4-4-4-4-4-4-4-|--3-3-3-3-3-3-3-3-3-3-3-3-3-3-3-3-|
--L--5-5-5-5-5-5-5-5-5-5-5-5-5-5-|--3-3-3-3-3-3-3-3-3-3-3-3-3-3-3-3-|
-----2-2-2-2-2-2-2-2-2-2-2-2-2-2-|--1-1-1-1-1-1-1-1-1-1-1-1-1-1-1-1-|

--------------------------------|
--------------------------------|
--------------------------------|
--2-2-4---5---7-2--2-4---5---4--|
--0-0-0-0-0-0-0-0--0-0-0-0-0-0--|
--------------------------------|


----------------------------------|----------------------------------|
--5-5---------5-5-5-5-------------|----------------------------------|
--5-5---------5-5-5-5-------------|--2-2---------2-2-2-2-------------|
--7-7---------7-7-7-7-------------|--4-4---------4-4-4-4-------------|
--7-7---------7-7-7-7-------------|--5-5---------5-5-5-5-------------|
--5-5---------5-5-5-5-------------|--2-2---------2-2-2-2-------------|


---------------------------------------------------------------------------------------------------|
--1-1---------1-1-1-1------------- ---5-5---------5-5-5-5--|
--3-3---------3-3-3-3------------------------------------------------------------------------------|
--3-3---------3-3-3-3------------------------------------------------------------------------------|
--1-1---------1-1-1-1------------------------------------------------------------------------------|


|--------------------------------------------|
|--5-5-------------5-5-5-5-------------------|
|--5-5-------------5-5-5-5-------------------|
|--7-7-------------7-7-7-7-------------------|
|--7-7-7--7--7--7--7-7-7-7-7--7--7--7--7--7--|
|--5-5-5--5--5--5--5-5-5-5-5--5--5--5--5--5--|


--------------------------------------------|
--5-5-------------5-5-5-5-------------------|
--5-5-------------5-5-5-5-------------------|
--7-7-------------7-7-7-7-------------------|
--7-7-7--7--7--7--7-7-7-7-7--7--7--7--7--7--|
--5-5-5--5--5--5--5-5-5-5-5--5--5--5--5--5--|


--------------------------------------------|
--------------------------------------------|
--2-2-------------2-2-2-2-------------------|
--4-4-------------4-4-4-4-------------------|
--5-5-5--5--5--5--5-5-5-5-5--5--5--5--5--5--|
--2-2-2--2--2--2--2-2-2-2-2--2--2--2--2--2--|


--------------------------------------------|
--------------------------------------------|
--2-2-------------2-2-2-2-------------------|
--3-3-------------3-3-3-3-------------------|
--3-3-3--3--3--3--3-3-3-3-3--3--3--3--3--3--|
--1-1-1--1--1--1--1-1-1-1-1--1--1--1--1--1--|


|----------------------------------|
|----------------------------------|
|----------------------------------|
|--4-4-4-4-4-4-4-4-4-4-4-4-4-4-4-4-|
|--5-5-5-5-5-5-5-5-5-5-5-5-5-5-5-5-|
|--2-2-2-2-2-2-2-2-2-2-2-2-2-2-2-2-|

|------------------------------------------|
|------------------------------------------|
|--7-7-7-7-9-9-9-9-11-11-11-11-12-12-12-12-|
|--x-x-x-x-x-x-x-x--x--x--x--x--x--x--x--x-|
|--5-5-5-5-7-7-7-7--9--9--9--9-10-10-10-10-|
|------------------------------------------|


--------------------------------|--------------------------------|
--------------------------------|--------------------------------|
--------------------------------|--------------------------------|
--2-2-4---5---7-2--2-4---5---4--|--2-2-4---5---7-2--2-4---5---4--|
--0-0-0-0-0-0-0-0--0-0-0-0-0-0--|--0-0-0-0-0-0-0-0--0-0-0-0-0-0--|
--------------------------------|--------------------------------|

--------------------------------|--------------------------------------|
--------------------------------|--------------------------------------|
--------------------------------|--------------------------------------|
--2-2-4---5---7-2--2-4---5---4--|--10-10-9---7-5---10--10-9---7-5---10-|
--0-0-0-0-0-0-0-0--0-0-0-0-0-0--|---0--0-0-0-0-0-0--0---0-0-0-0-0-0--0-|
--------------------------------|--------------------------------------|


--------------------------------------|
--------------------------------------|
--------------------------------------|
--10-10-9---7-5---10--10-9---7-5---10-|
---0--0-0-0-0-0-0--0---0-0-0-0-0-0--0-|
--------------------------------------|

-----------------------------------------|
-----------------------------------------|
-----------------------------------------|
--L-12-10---9-10---12--12-10---9-10---12-|
--0--0--0-0-0--0-0--0---0--0-0-0--0-0--0-|
-----------------------------------------|



-----------------------------------------|------------------------|
-----------------------------------------|------------------------|
-----------------------------------------|------------------------|
--L-12-10---9-10---12--12-10---9-10---12-|--13b--------13b--------|
--0--0--0-0-0--0-0--0---0--0-0-0--0-0--0-|---0----------0---------|
-----------------------------------------|------------------------|



------------------------|--------------------------------|
------------------------|--------------------------------|
------------------------|--------------------------------|
--13b--------13b--------|--2-2-4---5---7-2--2-4---5---4--|
---0----------0---------|--0-0-0-0-0-0-0-0--0-0-0-0-0-0--|
------------------------|--------------------------------|


------------------------------------|------------------------------------|
--------8~--10~-----------8~--10~---|--------8~--10~-----------8~--10~---|
--7b~------------7~-7b~-------------|--7b~------------7~-7b~-------------|x2
------------------------------------|------------------------------------|
------------------------------------|------------------------------------|
------------------------------------|------------------------------------|


E||----------------7-------------|---------0------0------0-----|
B||------------10-----10---------|--------10-----10-----10-----|
G||---------9-------------9------|---------9------9------9-----|
D||-----10-------------------10--|--------10-----10-----10-----|
A||--0---------------------------|--0----------------0------9--|
E||------------------------------|-----7------8----------------|


-------------------------------|----------------0-------------|
---------------10--------------|------------10-----10---------|
------------9------------------|---------9-------------9------|
--(10)--10---------------------|-----10-------------------10--|
---------------------9b--9--8--|--L---------------------------|
-------------------------------|------------------------------|

Refrein x2
--------------------------------------------------|
--------------------------------------------------|
--14-14-14-14-14-14-14-14-14-14-14-14-14-14-14-14-|
---x--x--x--x--x--x--x--x--x--x--x--x--x--x--x--x-|
--12-12-12-12-12-12-12-12-12-12-12-12-12-12-12-12-|
--------------------------------------------------|


--------------------------------------------|
--------------------------------------------|
--14-14-9-9-9-9-11-11-11-11-12-12-12-12-11--|
---x--x-x-x-x-x--x--x--x--x--x--x--x--x--x--|
--12-12-7-7-7-7--9--9--9--9-10-10-10-10--9--|
--------------------------------------------|


-----------------------------------------------|
-----------------------------------------------|
--L--11-11-11-11-11-11-11-11-11-11-11-11-11-11-|
------x--x--x--x--x--x--x--x--x--x--x--x--x--x-|
--L---9--9--9--9--9--9--9--9--9--9--9--9--9--9-|
-----------------------------------------------|


S S S S S S S S S S S S S S S S
--------------------------------------------------|
--------------------------------------------------|
--12-12-12-12-12-12-12-12-12-12-12-12-12-12-12-12-|
---x--x--x--x--x--x--x--x--x--x--x--x--x--x--x--x-|
--10-10-10-10-10-10-10-10-10-10-10-10-10-10-10-10-|
--------------------------------------------------|


|----------------------------------|
|----------------------------------|
|----------------------------------|
|--4-4-4-4-4-4-4-4-4-4-4-4-4-4-4-4-|
|--5-5-5-5-5-5-5-5-5-5-5-5-5-5-5-5-|
|--2-2-2-2-2-2-2-2-2-2-2-2-2-2-2-2-|


|------------------------------------------|
|------------------------------------------|
|--7-7-7-7-9-9-9-9-11-11-11-11-12-12-12-12-|
|--x-x-x-x-x-x-x-x--x--x--x--x--x--x--x--x-|
|--5-5-5-5-7-7-7-7--9--9--9--9-10-10-10-10-|
|------------------------------------------|


----------------------------------|
----------------------------------|
----------------------------------| x3
--7-7-7-7-7-7-7-7-7-7-7-7-7-7-7-7-|
--7-7-7-7-7-7-7-7-7-7-7-7-7-7-7-7-|
--5-5-5-5-5-5-5-5-5-5-5-5-5-5-5-5-|

----------------------------------||
----------------------------------||
----------------------------------||
--7-7---------7-7-7-7-------------||
--7-7---------7-7-7-7-------------||
--5-5---------5-5-5-5-------------||


--------------------------------|
--------------------------------|
--------------------------------|
--2-2-4---5---7-2--2-4---5---4--|
--0-0-0-0-0-0-0-0--0-0-0-0-0-0--|
--------------------------------|


--------------------------------|------------------------------------|
--------------------------------|------------------------------------|
--------------------------------|------------------------------------|
--2-2-4---5---7-2--2-4---5---4--|--10-10-9---7-5---10--10-9---7-5----|
--0-0-0-0-0-0-0-0--0-0-0-0-0-0--|---0--0-0-0-0-0-0--0---0-0-0-0-0-0--|
--------------------------------|------------------------------------|


--5-5---------5-5-5-5-------------||
--5-5---------5-5-5-5-------------||
--x-x---------x-x-x-x-------------||
--7-7---------7-7-7-7-------------||
--7-7---------7-7-7-7-------------||
--5-5---------5-5-5-5-------------||

ProTabs promo.jpg

Onbeperkt en gratis toegang tot alle 25.000
Tabs & Chords en direct meespelen met

Artiest Liedje

...

Gitaarakkoorden foo fighters - Pretender

Dankzij de bladmuziek op deze pagina wordt het een stuk makkelijker om met de gitaar mee te spelen met Pretender van foo fighters De ProTabs van Gitaartabs worden door onze professionele gitaardocenten samengesteld. De tabs en chords zijn door leden zelf geplaatst. Deze undefined van foo fighters met Pretender is voor je geschreven door [b]lack[a]ngel

Tabs & Chords van foo fighters - Pretender

Bij de ProTabs delen we niet alleen de tablatuur maar ook de speelwijze van Pretender Met een beetje gitaar ervaring moet je dit gitaarliedje zeker kunnen spelen, maar als het niet lukt zijn we er altijd om je te helpen. Door een gratis account aan te maken krijg je niet alleen toegang tot deze tab ,akkoorden & tabs van Pretender maar kun je ook onbeperkt meespelen met een van de meer dan 25.000 andere tabs & chords in onze database.

Plaats opmerking

Verstuur

Beoordeel deze song

Rate UsDon’t love itNot greatGoodGreatLove itRate Us

Bedankt voor je beoordeling!