Times like these, tab

Gitaarliedjes, tabs & akkoorden (chords) Times like these, tab - foo fighters

Songtype: Tab

arrow&v

Markeer als favoriet

Favoriet

Gemarkeerd als favoriet

Capo:

0

foo fighters

foo fighters

Song
Album
Categorie

Times like these, tab

Downloads
1626
Niveau
2

Geplaatst door
[b]lack[a]ngel
ProTabs-promo.jpg

Gtr I

||--5-5-5-5-5--5-5-|-5-5-5--5-5-5---|-5-5-5-5-5--5-5-|-5-5-5--5-5-5-----||
||o-3-3-3-3-3--3-3-|-3-3-3--3-3-3---|-3-3-3-3-3--3-3-|-3-3-3--3-3-3----o||
||--5-5-5-5-5--5-5-|-5-5-5--5-5-5---|-5-5-5-5-5--5-5-|-5-5-5--5-5-5-----||
||--0-0-0-0-0--0-0-|-0-0-0--0-0-0---|-0-0-0-0-0--0-0-|-0-0-0--0-0-0-----||
||o-0-5-5-0-5--0-5-|-5-0-5--0-5-5---|-0-5-5-0-5--0-5-|-5-0-5--0-5-5----o||
||-----------------|----------------|----------------|------------------||



Gtr II
|-------------------------|-------------------|
|-------------------------|-------------------|
|-------------12-11-------|-------12-11-------|
|--0-12-10--0--------0-12-|-10--0-------------|
|-------------------------|-------------12-10-|
|-------------------------|-------------------|

Gtr III
|-------------------------|-------------------|
|-------------------------|-------------------|
|-------------------------|-------------------|
|-12-12-12-12-12-12-12-12-|-12-12-12-12-12-12-|
|--x--x--x--x--x--x--x--x-|--x--x--x--x--x--x-|
|-10-10-10-10-10-10-10-10-|-10-10-10-10-10-10-|



|-------------------------|-------------------|
|-------------------------|-------------------|
|-------------12-11-------|-------12-11-------|
|--0-12-10--0--------0-12-|-10--0-------------|
|-------------------------|-------------12-10-|
|-------------------------|-------------------|


|-------------------------|-------------------|
|-------------------------|-------------------|
|-------------------------|-------------------|
|-10-10-10-10-10-10-10-10-|-10-10-10-10-10-10-|
|--x--x--x--x--x--x--x--x-|--x--x--x--x--x--x-|
|--8--8--8--8--8--8--8--8-|--8--8--8--8--8--8-|


Bm7
|----------------------|------------------|
|----------------------|------------------|
|-----------12-11------|------12-11-------|
|-0-12-10-0-------0-12-|-10-0-------------|
|----------------------|------------12-10-|
|----------------------|------------------|


|----------------------|------------------|
|----------------------|------------------|
|----------------------|------------------|
|-9--9--9-9--9--9-9--9-|--9-9--9--9--9--7-|
|-x--x--x-x--x--x-x--x-|--x-x--x--x--x--x-|
|-7--7--7-7--7--7-7--7-|--7-7--7--7--7--5-|


D/F#
|----------------------|-------------------|
|----------------------|-------------------|
|-----------12-11------|------12-11--------|
|-0-12-10-0-------0-12-|-10-0--------------|
|----------------------|------------12-10--|
|----------------------|-------------------|


|----------------------|-------------------|
|----------------------|-------------------|
|----------------------|-------------------|
|-4--4--4-4--4--4-4--4-|--4-4--4--4--4--4--|
|-x--x--x-x--x--x-x--x-|--x-x--x--x--x--x--|
|-2--2--2-2--2--2-2--2-|--2-2--2--2--2--2--|



|-------------------------|-------------------|
|-------------------------|-------------------|
|-------------12-11-------|-------12-11-------|
|--0-12-10--0--------0-12-|-10--0-------------|
|-------------------------|-------------12-10-|
|-------------------------|-------------------|



|-------------------------|-------------------|
|-------------------------|-------------------|
|-------------------------|-------------------|
|-10-10-10-10-10-10-10-10-|-10-10-10-10-10-10-|
|--x--x--x--x--x--x--x--x-|--x--x--x--x--x--x-|
|--8--8--8--8--8--8--8--8-|--8--8--8--8--8--8-|


Bm7
|----------------------|-------------------|
|----------------------|-------------------|
|-----------12-11------|------12-11--------|
|-0-12-10-0-------0-12-|-10-0--------------|
|----------------------|------------12-10--|
|----------------------|-------------------|


|----------------------|-------------------|
|----------------------|-------------------|
|----------------------|-------------------|
|-9--9--9-9--9--9-9--9-|--9-9--9--9--9--7--|
|-x--x--x-x--x--x-x--x-|--x-x--x--x--x--x--|
|-7--7--7-7--7--7-7--7-|--7-7--7--7--7--5--|


D/F# D/C
|----------------------|------------------|-------------------------|
|----------------------|------------------|-------------------------|
|-----------12-11------|------12-11-------|-------------12-11-------|
|-0-12-10-0-------0-12-|-10-0-------------|--0-12-10--0--------0-12-|
|----------------------|------------12-10-|-------------------------|
|----------------------|------------------|-------------------------|


|----------------------|------------------|-------------------------|
|----------------------|------------------|-------------------------|
|----------------------|------------------|-------------------------|
|-4--4--4-4--4--4-4--4-|--4-4--4--4--4--4-|-10-10-10-10-10-10-10-10-|
|-x--x--x-x--x--x-x--x-|--x-x--x--x--x--x-|--x--x--x--x--x--x--x--x-|
|-2--2--2-2--2--2-2--2-|--2-2--2--2--2--2-|--8--8--8--8--8--8--8--8-|


Bm7
|-------------------|----------------------|------------------------|
|-------------------|----------------------|------------------------|
|-------12-11-------|-----------12-11------|------12-11-------------|
|-10--0-------------|-0-12-10-0-------0-12-|-10-0-------------------|
|-------------12-10-|----------------------|------------12-10-12\---|
|-------------------|----------------------|------------------------|


|-------------------|----------------------|------------------------|
|-------------------|----------------------|------------------------|
|-------------------|----------------------|------------------------|
|-10-10-10-10-10-10-|-9--9--9-9--9--9-9--9-|--9-9--9--9--9--9--9--9-|
|--x--x--x--x--x--x-|-x--x--x-x--x--x-x--x-|--x-x--x--x--x--x--x--x-|
|--8--8--8--8--8--8-|-7--7--7-7--7--7-7--7-|--7-7--7--7--7--7--7--7-|


D7
Gtrs II, III
|-5-5-5-5-5--5-5-|-5-5-5--5-5-5---|-5-5-5-5-5--5-5-|-5-5-5--5-5-5---||
|-3-3-3-3-3--3-3-|-3-3-3--3-3-3---|-3-3-3-3-3--3-3-|-3-3-3--3-3-3---||
|-5-5-5-5-5--5-5-|-5-5-5--5-5-5---|-5-5-5-5-5--5-5-|-5-5-5--5-5-5---||
|-0-0-0-0-0--0-0-|-0-0-0--0-0-0---|-0-0-0-0-0--0-0-|-0-0-0--0-0-0---||
|-0-5-5-0-5--0-5-|-5-0-5--0-5-5---|-0-5-5-0-5--0-5-|-5-0-5--0-5-5---||
|----------------|----------------|----------------|----------------||

Couplet
||--------0-(0)-----2-|-(2)-----0-(0)-------|
||o-----3-------3-----|-----3---------3-----|
||----2-----------2---|-------2---------2---|
||--0-----------------|---------------------|
||o-------------------|---------------------|
||--------------------|---------------------|


Gtr III
|--------------------|---------------------|
|o-------------------|---------------------|
|--------------------|---------------------|
|--7-7-7-7--7--7-7-7-|--7--7-7-7--7--7-7-7-
|o-5-5-5-5--5--5-5-5-|--5--5-5-5--5--5-5-5-|
|--------------------|---------------------|


Am
|-------3-(3)-----0-|-(0)-----3-(3)--------|
|-------------1-----|-----1---------1------|
|-----2---------2---|-------2--------------|
|---2---------------|----------------------|
|-0-----------------|-----------------2----|
|-------------------|----------------------|


|-------------------|----------------------|
|-------------------|----------------------|
|-------------------|----------------------|
|-------------------|-----------------4-4--|
|-7-7-7-7--7--7-7-7-|--7--7-7-7--7--7-2-2--|
|-5-5-5-5--5--5-5-5-|--5--5-5-5--5--5------|


1.
C Em7 D7
Gtr II
|-------0-(0)-------|-------0-(0)-------|-5-5-5-5-5--5-5-|-5-5-5--5-5-5----||
|-------1-(1)-------|-------3-(3)-------|-3-3-3-3-3--3-3-|-3-3-3--3-3-3---o||
|-----0-------0-----|-------------0-----|-5-5-5-5-5--5-5-|-5-5-5--5-5-5----||
|---2-----------2---|-----2---------2---|-0-0-0-0-0--0-0-|-0-0-0--0-0-0----||
|-3---------------3-|---2-------------2-|-0-5-5-0-5--0-5-|-5-0-5--0-5-5---o||
|-------------------|-0-----------------|----------------|-----------------||


|-------------------|-------------------|-5-5-5-5-5--5-5-|-5-5-5--5-5-5----||
|-------------------|-------------------|-3-3-3-3-3--3-3-|-3-3-3--3-3-3---o||
|-------------------|-------------------|-5-5-5-5-5--5-5-|-5-5-5--5-5-5----||
|-5-5-5-5--5--5-5-5-|-------------------|-0-0-0-0-0--0-0-|-0-0-0--0-0-0----||
|-3-3-3-3--3--3-3-3-|-2-2-2-2--2--2-2-2-|-0-5-5-0-5--0-5-|-5-0-5--0-5-5---o||
|-------------------|-0-0-0-0--0--0-0-0-|----------------|-----------------||


2.
D7
Gtrs II, III
|-5-5-5-5-5--5-5-|-5-5-5--5-5-5---|-5-5-5-5-5--5-5-|-5-5-5--5-5-5---||
|-3-3-3-3-3--3-3-|-3-3-3--3-3-3---|-3-3-3-3-3--3-3-|-3-3-3--3-3-3---||
|-5-5-5-5-5--5-5-|-5-5-5--5-5-5---|-5-5-5-5-5--5-5-|-5-5-5--5-5-5---||
|-0-0-0-0-0--0-0-|-0-0-0--0-0-0---|-0-0-0-0-0--0-0-|-0-0-0--0-0-0---||
|-0-5-5-0-5--0-5-|-5-0-5--0-5-5---|-0-5-5-0-5--0-5-|-5-0-5--0-5-5---||
|----------------|----------------|----------------|----------------||


Chorus
C Em7 Dadd4 3x
||--------------------|-------------------|----------------------||
||o-------------------|-------------------|---------------------o||
||--0-----0-(0)---0---|-0-----0-(0)---0---|---0------------------||
||--2-----------------|-2-----------------|-4---4-------4-(4)----||
||o-3-----------------|-2-----------------|-5-----5-(5)---------o||
||--------------------|-0-----------------|----------------------||


|-------------------|--------------------|-5-5-5-5-5--5-5-|
|-------------------|--------------------|-3-3-3-3-3--3-3-|
|-0-----0-(0)---0---|-0-----0-(0)---0----|-5-5-5-5-5--5-5-|
|-2-----------------|-2------------------|-0-0-0-0-0--0-0-|
|-3-----------------|-2------------------|-0-5-5-0-5--0-5-|
|-------------------|-0------------------|----------------|



|-5-5-5--5-5-5---|-5-5-5-5-5--5-5-|-5-5-5--5-5-5----||
|-3-3-3--3-3-3---|-3-3-3-3-3--3-3-|-3-3-3--3-3-3----||
|-5-5-5--5-5-5---|-5-5-5-5-5--5-5-|-5-5-5--5-5-5----||
|-0-0-0--0-0-0---|-0-0-0-0-0--0-0-|-0-0-0--0-0-0----||
|-5-0-5--0-5-5---|-0-5-5-0-5--0-5-|-5-0-5--0-5-5----||
|----------------|----------------|-----------------||


Interlude
D D/C
||--------------------------|-------------------|-------------------------|
||o-------------------------|-------------------|-------------------------|
||--------------12-11-------|-------12-11-------|-------------12-11-------|
||---0-12-10--0--------0-12-|-10--0-------------|--0-12-10--0--------0-12-|
||o-------------------------|-------------12-10-|-------------------------|
||--------------------------|-------------------|-------------------------|

gtr 3
||--------------------------|-------------------|-------------------------|
||o-------------------------|-------------------|-------------------------|
||--------------------------|-------------------|-------------------------|
||--12-12-12-12-12-12-12-12-|-12-12-12-12-12-12-|-10-10-10-10-10-10-10-10-|
||o--x--x--x--x--x--x--x--x-|--x--x--x--x--x--x-|--x--x--x--x--x--x--x--x-|
||--10-10-10-10-10-10-10-10-|-10-10-10-10-10-10-|--8--8--8--8--8--8--8--8-|


Bm7
|--------------------|----------------------|
|--------------------|----------------------|
|--------12-11-------|-----------12-11------|
|-10---0-------------|-0-12-10-0-------0-12-|
|--------------12-10-|----------------------|
|--------------------|----------------------|


|--------------------|----------------------|
|--------------------|----------------------|
|--------------------|----------------------|
|-10--10-10-10-10-10-|-9--9--9-9--9--9-9--9-|
|--x---x--x--x--x--x-|-x--x--x-x--x--x-x--x-|
|--8---8--8--8--8--8-|-7--7--7-7--7--7-7--7-|

Gtr IV

|--------------------|----------------------|
|--------------------|----------------------|
|--------------------|----------------------|
|--------------------|----------------------|
|--------------------|----------------------|
|--------------------|----------------------|



|--------------------||--------------------||
|-------------------o||--------------------||
|-------12-11--------||------12-11---------||
|-10--0--------------||-10-0---------------||
|-------------12-10-o||------------12-10---||
|--------------------||--------------------||


|--------------------||--------------------||
|-------------------o||--------------------||
|--------------------||--------------------||
|--9--9--9--9--9--7--||--9-9--9--9--9--7---||
|--x--x--x--x--x--x-o||--x-x--x--x--x--x---||
|--7--7--7--7--7--5--||--7-7--7--7--7--5---||


|--------------------||--------------------||
|-------------------o||--------------------||
|--------------------||--------------------||
|--------------------||--------------------||
|-------------------o||--------------------||
|--------------------||-------------3s15\--||


||--5--5--5-5--5----5--5-|--5-5--5-----5--5--5----|
||o-3--3--3-3--3----3--3-|--3-3--3-----3--3--3----|
||--5--5--5-5--5----5--5-|--5-5--5-----5--5--5----|
||--0--0--0-0--0----0--0-|--0-0--0-----0--0--0----|
||o-0--5--5-0--5----0--5-|--5-0--5-----0--5--5----|
||-----------------------|------------------------|


||-----------------------|------------------------|
||o----------------------|------------------------|
||------------12-11------|------12-11-------------|
||--0-12-10-0-------0-12-|-10-0-------------------|
||o----------------------|------------12-10-12\---|
||-----------------------|------------------------|



|-5--5--5-5--5----5--5-|--5-5--5-----5--5--5------||
|-3--3--3-3--3----3--3-|--3-3--3-----3--3--3-----o||
|-5--5--5-5--5----5--5-|--5-5--5-----5--5--5------||
|-0--0--0-0--0----0--0-|--0-0--0-----0--0--0------||
|-0--5--5-0--5----0--5-|--5-0--5-----0--5--5-----o||
|----------------------|--------------------------||


|----------------------|--------------------------||
|----------------------|-------------------------o||
|-----------12-11------|------12-11---------------||
|-0-12-10-0-------0-12-|-10-0---------------------||
|----------------------|------------12-10-12\----o||
|----------------------|--------------------------||


Chorus 8x
||--------------------|-------------------|----------------------||
||o-------------------|-------------------|---------------------o||
||--0-----0-(0)---0---|-0-----0-(0)---0---|---0------------------||
||--2-----------------|-2-----------------|-4---4-------4-(4)----||
||o-3-----------------|-2-----------------|-5-----5-(5)---------o||
||--------------------|-0-----------------|----------------------||


Outro
C Em7 Dadd4
gtr I
|-------3-(3)-------|---------0-(0)----------|-------5-(5)-------|
|-----1-1-(1)-1-1---|-------3-3-(3)-3---3----|-----3-3-(3)-3-3---|
|--0--0-0-(0)-0-0-0-|---0---0-0-(0)-0---0--0-|--0--0-0-(0)-0-0-0-|
|--2--2-------2-2-2-|---2---2-------2---2--2-|--4--4-------4-4-4-|
|--3--3-------3-3-3-|---2---2-------2---2--2-|--5--5-------5-5-5-|
|------------------|---0---0-------0---0--0-|-------------------|

Gtr II, III
|-------------------|------------------------|-------------------|
|-------------------|------------------------|-------------------|
|-12----------------|-(12)------------(12)s==|=11----------------|
|--x----------------|--(x)-------------(x)---|--x----------------|
|-10----------------|-(10)------------(10)s==|==9----------------|
|-------------------|------------------------|-------------------|


C Em7 Dadd4
||-------3-(3)-------|------0-(0)-------|------5-(5)--------||
||o----1-1-(1)-1-1---|----3-3-(3)-3-3---|----3-3-(3)-3-3---o||
||--0--0-0-(0)-0-0-0-|-0--0-0-(0)-0-0-0-|-0--0-0-(0)-0-0-0--||
||--2--2-------2-2-2-|-2--2-------2-2-2-|-4--4-------4-4-4--||
||o-3--3-------3-3-3-|-2--2-------2-2-2-|-5--5-------5-5-5-o||
||-------------------|-0--0-------0-0-0-|-------------------||


C
|----------|--------*|
|----------|--------*|
|-0--------|-(0)----*|
|-2--------|-(2)----*|
|-3--------|-(3)----*|
|----------|--------*|

ProTabs promo.jpg

Onbeperkt en gratis toegang tot alle 25.000
Tabs & Chords en direct meespelen met

Artiest Liedje

...

Gitaarakkoorden foo fighters - Times like these, tab

Dankzij de bladmuziek op deze pagina wordt het een stuk makkelijker om met de gitaar mee te spelen met Times like these, tab van foo fighters De ProTabs van Gitaartabs worden door onze professionele gitaardocenten samengesteld. De tabs en chords zijn door leden zelf geplaatst. Deze undefined van foo fighters met Times like these, tab is voor je geschreven door [b]lack[a]ngel

Tabs & Chords van foo fighters - Times like these, tab

Bij de ProTabs delen we niet alleen de tablatuur maar ook de speelwijze van Times like these, tab Met een beetje gitaar ervaring moet je dit gitaarliedje zeker kunnen spelen, maar als het niet lukt zijn we er altijd om je te helpen. Door een gratis account aan te maken krijg je niet alleen toegang tot deze tab ,akkoorden & tabs van Times like these, tab maar kun je ook onbeperkt meespelen met een van de meer dan 25.000 andere tabs & chords in onze database.

Plaats opmerking

Verstuur

Beoordeel deze song

Rate UsDon’t love itNot greatGoodGreatLove itRate Us

Bedankt voor je beoordeling!